ISO-10303-21;
HEADER;
FILE_DESCRIPTION (( 'STEP AP203' ),
    '1' );
FILE_NAME ('TAP COLLET ER 25G  9.0  X 7.1.STEP',
    '2019-04-09T10:08:15',
    ( '' ),
    ( '' ),
    'SwSTEP 2.0',
    'SolidWorks 2014',
    '' );
FILE_SCHEMA (( 'CONFIG_CONTROL_DESIGN' ));
ENDSEC;

DATA;
#1 = CARTESIAN_POINT ( 'NONE',  ( 13.03657776635556700, 1.596520323340289600E-015, 7.842050807568876200 ) ) ;
#2 = EDGE_CURVE ( 'NONE', #189, #104, #148, .T. ) ;
#3 = APPROVAL_ROLE ( '' ) ;
#4 = PRODUCT ( 'TAP COLLET ER 25G  9.0  X 7.1', 'TAP COLLET ER 25G  9.0  X 7.1', '', ( #63 ) ) ;
#5 = EDGE_CURVE ( 'NONE', #109, #17, #141, .T. ) ;
#6 = ORIENTED_EDGE ( 'NONE', *, *, #329, .F. ) ;
#7 = FACE_OUTER_BOUND ( 'NONE', #177, .T. ) ;
#8 = VECTOR ( 'NONE', #331, 1000.000000000000200 ) ;
#9 =( LENGTH_UNIT ( ) NAMED_UNIT ( * ) SI_UNIT ( .MILLI., .METRE. ) );
#10 = CARTESIAN_POINT ( 'NONE',  ( 0.0000000000000000000, 0.0000000000000000000, 0.0000000000000000000 ) ) ;
#11 = CARTESIAN_POINT ( 'NONE',  ( 0.0000000000000000000, 0.0000000000000000000, 7.842050807568876200 ) ) ;
#12 = EDGE_LOOP ( 'NONE', ( #378, #294, #32, #6 ) ) ;
#13 = CARTESIAN_POINT ( 'NONE',  ( 0.0000000000000000000, 0.0000000000000000000, 7.842050807568876200 ) ) ;
#14 = CIRCLE ( 'NONE', #222, 13.03657776635556700 ) ;
#15 = ADVANCED_BREP_SHAPE_REPRESENTATION ( 'TAP COLLET ER 25G  9.0  X 7.1', ( #85, #26 ), #145 ) ;
#16 = COORDINATED_UNIVERSAL_TIME_OFFSET ( 5, 30, .AHEAD. ) ;
#17 = VERTEX_POINT ( 'NONE', #211 ) ;
#18 = DIRECTION ( 'NONE',  ( 0.0000000000000000000, -1.000000000000000000, 0.0000000000000000000 ) ) ;
#19 =( NAMED_UNIT ( * ) SI_UNIT ( $, .STERADIAN. ) SOLID_ANGLE_UNIT ( ) );
#20 = FACE_BOUND ( 'NONE', #74, .T. ) ;
#21 = CARTESIAN_POINT ( 'NONE',  ( -9.408710285118862900, 0.0000000000000000000, 33.65566924038402900 ) ) ;
#22 = CONICAL_SURFACE ( 'NONE', #197, 13.03657776635556700, 0.1396263401595396500 ) ;
#23 = CARTESIAN_POINT ( 'NONE',  ( 0.0000000000000000000, 0.0000000000000000000, 4.742050807568884500 ) ) ;
#24 = EDGE_LOOP ( 'NONE', ( #191, #114, #258, #302 ) ) ;
#25 = CARTESIAN_POINT ( 'NONE',  ( -11.00000000000000000, 1.347111479062088400E-015, 4.742050807568884500 ) ) ;
#26 = AXIS2_PLACEMENT_3D ( 'NONE', #76, #99, #28 ) ;
#27 = ORIENTED_EDGE ( 'NONE', *, *, #44, .F. ) ;
#28 = DIRECTION ( 'NONE',  ( 1.000000000000000000, 0.0000000000000000000, 0.0000000000000000000 ) ) ;
#29 = CIRCLE ( 'NONE', #353, 13.00000000000000000 ) ;
#30 = PERSON_AND_ORGANIZATION_ROLE ( 'design_supplier' ) ;
#31 = PRODUCT_DEFINITION ( 'UNKNOWN', '', #230, #55 ) ;
#32 = ORIENTED_EDGE ( 'NONE', *, *, #325, .T. ) ;
#33 = APPROVAL ( #291, 'UNSPECIFIED' ) ;
#34 = CARTESIAN_POINT ( 'NONE',  ( 0.0000000000000000000, 0.0000000000000000000, 7.842050807568890400 ) ) ;
#35 = VERTEX_POINT ( 'NONE', #324 ) ;
#36 = EDGE_LOOP ( 'NONE', ( #358, #223 ) ) ;
#37 = CARTESIAN_POINT ( 'NONE',  ( -9.012603057622234500, 1.103725548650271700E-015, 33.60000000000000100 ) ) ;
#38 = EDGE_CURVE ( 'NONE', #180, #136, #188, .T. ) ;
#39 = DIRECTION ( 'NONE',  ( 1.000000000000000000, 0.0000000000000000000, 0.0000000000000000000 ) ) ;
#40 = LOCAL_TIME ( 15, 38, 15.00000000000000000, #119 ) ;
#41 = APPROVAL_PERSON_ORGANIZATION ( #333, #310, #292 ) ;
#42 = AXIS2_PLACEMENT_3D ( 'NONE', #204, #78, #275 ) ;
#43 = DIRECTION ( 'NONE',  ( -0.0000000000000000000, -0.0000000000000000000, 1.000000000000000000 ) ) ;
#44 = EDGE_CURVE ( 'NONE', #189, #69, #72, .T. ) ;
#45 = DIRECTION ( 'NONE',  ( -0.0000000000000000000, -0.0000000000000000000, 1.000000000000000000 ) ) ;
#46 = DIRECTION ( 'NONE',  ( 1.000000000000000000, 0.0000000000000000000, 0.0000000000000000000 ) ) ;
#47 = CLOSED_SHELL ( 'NONE', ( #259, #380, #279, #132, #97, #93, #157, #162, #365, #231, #168, #234 ) ) ;
#48 = DIRECTION ( 'NONE',  ( -0.0000000000000000000, -0.0000000000000000000, 1.000000000000000000 ) ) ;
#49 = EDGE_CURVE ( 'NONE', #239, #17, #174, .T. ) ;
#50 = FACE_OUTER_BOUND ( 'NONE', #24, .T. ) ;
#51 = CARTESIAN_POINT ( 'NONE',  ( 10.26217568973925200, 0.0000000000000000000, 0.0000000000000000000 ) ) ;
#52 = ORIENTED_EDGE ( 'NONE', *, *, #327, .F. ) ;
#53 = CARTESIAN_POINT ( 'NONE',  ( 13.03657776635556700, 1.596520323340289600E-015, 7.842050807568876200 ) ) ;
#54 = CARTESIAN_POINT ( 'NONE',  ( 0.0000000000000000000, 0.0000000000000000000, 7.842050807568890400 ) ) ;
#55 = DESIGN_CONTEXT ( 'detailed design', #112, 'design' ) ;
#56 = VECTOR ( 'NONE', #127, 1000.000000000000000 ) ;
#57 = PERSON_AND_ORGANIZATION ( #65, #98 ) ;
#58 = CARTESIAN_POINT ( 'NONE',  ( 11.00000000000000000, 0.0000000000000000000, 4.742050807568884500 ) ) ;
#59 = AXIS2_PLACEMENT_3D ( 'NONE', #87, #280, #134 ) ;
#60 = ORIENTED_EDGE ( 'NONE', *, *, #38, .T. ) ;
#61 = CIRCLE ( 'NONE', #228, 10.26217568973925200 ) ;
#62 = DIRECTION ( 'NONE',  ( 0.0000000000000000000, 0.0000000000000000000, -1.000000000000000000 ) ) ;
#63 = MECHANICAL_CONTEXT ( 'NONE', #257, 'mechanical' ) ;
#64 = PERSON_AND_ORGANIZATION_ROLE ( 'classification_officer' ) ;
#65 = PERSON ( 'UNSPECIFIED', 'UNSPECIFIED', 'UNSPECIFIED', ('UNSPECIFIED'), ('UNSPECIFIED'), ('UNSPECIFIED') ) ;
#66 = EDGE_CURVE ( 'NONE', #196, #136, #301, .T. ) ;
#67 = ORIENTED_EDGE ( 'NONE', *, *, #373, .F. ) ;
#68 = AXIS2_PLACEMENT_3D ( 'NONE', #54, #283, #246 ) ;
#69 = VERTEX_POINT ( 'NONE', #21 ) ;
#70 = PERSON_AND_ORGANIZATION ( #65, #98 ) ;
#71 = APPROVAL_PERSON_ORGANIZATION ( #57, #33, #357 ) ;
#72 = CIRCLE ( 'NONE', #73, 9.408710285118862900 ) ;
#73 = AXIS2_PLACEMENT_3D ( 'NONE', #386, #210, #182 ) ;
#74 = EDGE_LOOP ( 'NONE', ( #60, #100 ) ) ;
#75 = AXIS2_PLACEMENT_3D ( 'NONE', #23, #135, #82 ) ;
#76 = CARTESIAN_POINT ( 'NONE',  ( 0.0000000000000000000, 0.0000000000000000000, 0.0000000000000000000 ) ) ;
#77 = AXIS2_PLACEMENT_3D ( 'NONE', #209, #322, #282 ) ;
#78 = DIRECTION ( 'NONE',  ( -0.0000000000000000000, -0.0000000000000000000, 1.000000000000000000 ) ) ;
#79 = AXIS2_PLACEMENT_3D ( 'NONE', #106, #317, #178 ) ;
#80 = ORIENTED_EDGE ( 'NONE', *, *, #66, .T. ) ;
#81 = DIRECTION ( 'NONE',  ( 0.0000000000000000000, 0.0000000000000000000, -1.000000000000000000 ) ) ;
#82 = DIRECTION ( 'NONE',  ( 1.000000000000000000, 0.0000000000000000000, 0.0000000000000000000 ) ) ;
#83 = CC_DESIGN_PERSON_AND_ORGANIZATION_ASSIGNMENT ( #340, #252, ( #4 ) ) ;
#84 = DIRECTION ( 'NONE',  ( -0.0000000000000000000, -0.0000000000000000000, 1.000000000000000000 ) ) ;
#85 = MANIFOLD_SOLID_BREP ( 'Revolve1', #47 ) ;
#86 = CONICAL_SURFACE ( 'NONE', #77, 10.26217568973925200, 0.5235987755982940400 ) ;
#87 = CARTESIAN_POINT ( 'NONE',  ( 0.0000000000000000000, 0.0000000000000000000, 0.0000000000000000000 ) ) ;
#88 = SHAPE_DEFINITION_REPRESENTATION ( #339, #15 ) ;
#89 = APPLICATION_PROTOCOL_DEFINITION ( 'international standard', 'config_control_design', 1994, #112 ) ;
#90 = AXIS2_PLACEMENT_3D ( 'NONE', #128, #274, #312 ) ;
#91 = CIRCLE ( 'NONE', #256, 0.4000000000000010200 ) ;
#92 = APPROVAL_STATUS ( 'not_yet_approved' ) ;
#93 = ADVANCED_FACE ( 'NONE', ( #50 ), #86, .T. ) ;
#94 = CARTESIAN_POINT ( 'NONE',  ( 0.0000000000000000000, 0.0000000000000000000, 101.8074564848000400 ) ) ;
#95 = AXIS2_PLACEMENT_3D ( 'NONE', #377, #18, #277 ) ;
#96 = LINE ( 'NONE', #195, #201 ) ;
#97 = ADVANCED_FACE ( 'NONE', ( #163 ), #384, .F. ) ;
#98 = ORGANIZATION ( 'UNSPECIFIED', 'UNSPECIFIED', '' ) ;
#99 = DIRECTION ( 'NONE',  ( 0.0000000000000000000, 0.0000000000000000000, 1.000000000000000000 ) ) ;
#100 = ORIENTED_EDGE ( 'NONE', *, *, #329, .T. ) ;
#101 = CARTESIAN_POINT ( 'NONE',  ( 11.00000000000000000, 0.0000000000000000000, 101.8074564848000400 ) ) ;
#102 = FACE_OUTER_BOUND ( 'NONE', #217, .T. ) ;
#103 = DIRECTION ( 'NONE',  ( -0.0000000000000000000, -0.0000000000000000000, 1.000000000000000000 ) ) ;
#104 = VERTEX_POINT ( 'NONE', #53 ) ;
#105 = DIRECTION ( 'NONE',  ( -0.0000000000000000000, -0.0000000000000000000, 1.000000000000000000 ) ) ;
#106 = CARTESIAN_POINT ( 'NONE',  ( 0.0000000000000000000, 0.0000000000000000000, 34.00000000000000000 ) ) ;
#107 = CARTESIAN_POINT ( 'NONE',  ( -9.012603057622234500, 1.127980121063915600E-015, 34.00000000000000000 ) ) ;
#108 = CALENDAR_DATE ( 2019, 9, 4 ) ;
#109 = VERTEX_POINT ( 'NONE', #51 ) ;
#110 = CIRCLE ( 'NONE', #90, 13.03657776635556700 ) ;
#111 = EDGE_CURVE ( 'NONE', #35, #120, #307, .T. ) ;
#112 = APPLICATION_CONTEXT ( 'configuration controlled 3d designs of mechanical parts and assemblies' ) ;
#113 = EDGE_LOOP ( 'NONE', ( #198, #207, #349, #315 ) ) ;
#114 = ORIENTED_EDGE ( 'NONE', *, *, #338, .T. ) ;
#115 = CYLINDRICAL_SURFACE ( 'NONE', #350, 11.00000000000000000 ) ;
#116 = AXIS2_PLACEMENT_3D ( 'NONE', #309, #103, #46 ) ;
#117 = DIRECTION ( 'NONE',  ( -0.0000000000000000000, -0.0000000000000000000, 1.000000000000000000 ) ) ;
#118 = ORIENTED_EDGE ( 'NONE', *, *, #153, .T. ) ;
#119 = COORDINATED_UNIVERSAL_TIME_OFFSET ( 5, 30, .AHEAD. ) ;
#120 = VERTEX_POINT ( 'NONE', #107 ) ;
#121 = LINE ( 'NONE', #101, #186 ) ;
#122 = VECTOR ( 'NONE', #84, 1000.000000000000000 ) ;
#123 = EDGE_CURVE ( 'NONE', #69, #125, #311, .T. ) ;
#124 = ORIENTED_EDGE ( 'NONE', *, *, #2, .T. ) ;
#125 = VERTEX_POINT ( 'NONE', #379 ) ;
#126 = AXIS2_PLACEMENT_3D ( 'NONE', #13, #62, #212 ) ;
#127 = DIRECTION ( 'NONE',  ( 0.1391731009600587800, 1.704378926181474000E-017, -0.9902680687415712500 ) ) ;
#128 = CARTESIAN_POINT ( 'NONE',  ( 0.0000000000000000000, 0.0000000000000000000, 7.842050807568876200 ) ) ;
#129 = TOROIDAL_SURFACE ( 'NONE', #144, 9.012603057622234500, 0.4000000000000009700 ) ;
#130 = CARTESIAN_POINT ( 'NONE',  ( -11.00000000000000000, 1.347111479062088400E-015, 7.842050807568890400 ) ) ;
#131 = ORIENTED_EDGE ( 'NONE', *, *, #334, .F. ) ;
#132 = ADVANCED_FACE ( 'NONE', ( #225 ), #139, .T. ) ;
#133 = ORIENTED_EDGE ( 'NONE', *, *, #161, .F. ) ;
#134 = DIRECTION ( 'NONE',  ( 1.000000000000000000, 0.0000000000000000000, 0.0000000000000000000 ) ) ;
#135 = DIRECTION ( 'NONE',  ( -0.0000000000000000000, -0.0000000000000000000, 1.000000000000000000 ) ) ;
#136 = VERTEX_POINT ( 'NONE', #130 ) ;
#137 = CARTESIAN_POINT ( 'NONE',  ( 0.0000000000000000000, 0.0000000000000000000, 4.742050807568884500 ) ) ;
#138 = APPROVAL_PERSON_ORGANIZATION ( #70, #318, #3 ) ;
#139 = CONICAL_SURFACE ( 'NONE', #166, 10.26217568973925200, 0.5235987755982940400 ) ;
#140 = DIRECTION ( 'NONE',  ( 1.000000000000000000, 0.0000000000000000000, 0.0000000000000000000 ) ) ;
#141 = LINE ( 'NONE', #354, #8 ) ;
#142 = DATE_TIME_ROLE ( 'creation_date' ) ;
#143 = ORIENTED_EDGE ( 'NONE', *, *, #327, .T. ) ;
#144 = AXIS2_PLACEMENT_3D ( 'NONE', #341, #330, #370 ) ;
#145 =( GEOMETRIC_REPRESENTATION_CONTEXT ( 3 ) GLOBAL_UNCERTAINTY_ASSIGNED_CONTEXT ( ( #347 ) ) GLOBAL_UNIT_ASSIGNED_CONTEXT ( ( #9, #194, #19 ) ) REPRESENTATION_CONTEXT ( 'NONE', 'WORKASPACE' ) );
#146 = APPROVAL_DATE_TIME ( #164, #310 ) ;
#147 = CIRCLE ( 'NONE', #95, 0.3999999999999975800 ) ;
#148 = LINE ( 'NONE', #1, #56 ) ;
#149 = DIRECTION ( 'NONE',  ( 0.0000000000000000000, 0.0000000000000000000, -1.000000000000000000 ) ) ;
#150 = DIRECTION ( 'NONE',  ( -0.0000000000000000000, -0.0000000000000000000, 1.000000000000000000 ) ) ;
#151 = DIRECTION ( 'NONE',  ( -0.4999999999999957800, 6.123233995736714300E-017, 0.8660254037844410400 ) ) ;
#152 = DIRECTION ( 'NONE',  ( 1.000000000000000000, 0.0000000000000000000, 0.0000000000000000000 ) ) ;
#153 = EDGE_CURVE ( 'NONE', #189, #35, #147, .T. ) ;
#154 = CARTESIAN_POINT ( 'NONE',  ( -13.03657776635556700, 0.0000000000000000000, 7.842050807568876200 ) ) ;
#155 = FACE_OUTER_BOUND ( 'NONE', #323, .T. ) ;
#156 = EDGE_CURVE ( 'NONE', #69, #189, #361, .T. ) ;
#157 = ADVANCED_FACE ( 'NONE', ( #221, #319 ), #241, .F. ) ;
#158 = COORDINATED_UNIVERSAL_TIME_OFFSET ( 5, 30, .AHEAD. ) ;
#159 = CIRCLE ( 'NONE', #303, 9.012603057622234500 ) ;
#160 = APPROVAL_STATUS ( 'not_yet_approved' ) ;
#161 = EDGE_CURVE ( 'NONE', #125, #104, #110, .T. ) ;
#162 = ADVANCED_FACE ( 'NONE', ( #214 ), #297, .T. ) ;
#163 = FACE_OUTER_BOUND ( 'NONE', #36, .T. ) ;
#164 = DATE_AND_TIME ( #254, #346 ) ;
#165 = TOROIDAL_SURFACE ( 'NONE', #375, 9.012603057622234500, 0.4000000000000009700 ) ;
#166 = AXIS2_PLACEMENT_3D ( 'NONE', #244, #208, #206 ) ;
#167 = PLANE ( 'NONE',  #216 ) ;
#168 = ADVANCED_FACE ( 'NONE', ( #155 ), #165, .T. ) ;
#169 = ORIENTED_EDGE ( 'NONE', *, *, #38, .F. ) ;
#170 = DIRECTION ( 'NONE',  ( 1.000000000000000000, 0.0000000000000000000, 0.0000000000000000000 ) ) ;
#171 = EDGE_LOOP ( 'NONE', ( #173, #290, #235, #343 ) ) ;
#172 = DATE_AND_TIME ( #202, #224 ) ;
#173 = ORIENTED_EDGE ( 'NONE', *, *, #2, .F. ) ;
#174 = CIRCLE ( 'NONE', #75, 13.00000000000000000 ) ;
#175 = CARTESIAN_POINT ( 'NONE',  ( 0.0000000000000000000, 0.0000000000000000000, 101.8074564848000400 ) ) ;
#176 = DIRECTION ( 'NONE',  ( 0.0000000000000000000, 0.0000000000000000000, -1.000000000000000000 ) ) ;
#177 = EDGE_LOOP ( 'NONE', ( #27, #124, #314, #308 ) ) ;
#178 = DIRECTION ( 'NONE',  ( 1.000000000000000000, 0.0000000000000000000, 0.0000000000000000000 ) ) ;
#179 = PERSON_AND_ORGANIZATION ( #65, #98 ) ;
#180 = VERTEX_POINT ( 'NONE', #374 ) ;
#181 = CIRCLE ( 'NONE', #237, 11.00000000000000000 ) ;
#182 = DIRECTION ( 'NONE',  ( 1.000000000000000000, 0.0000000000000000000, 0.0000000000000000000 ) ) ;
#183 = DIRECTION ( 'NONE',  ( -0.0000000000000000000, -0.0000000000000000000, 1.000000000000000000 ) ) ;
#184 = EDGE_CURVE ( 'NONE', #345, #196, #335, .T. ) ;
#185 = ORIENTED_EDGE ( 'NONE', *, *, #332, .F. ) ;
#186 = VECTOR ( 'NONE', #48, 1000.000000000000000 ) ;
#187 = APPROVAL_DATE_TIME ( #172, #33 ) ;
#188 = CIRCLE ( 'NONE', #68, 11.00000000000000000 ) ;
#189 = VERTEX_POINT ( 'NONE', #238 ) ;
#190 = PERSON_AND_ORGANIZATION_ROLE ( 'creator' ) ;
#191 = ORIENTED_EDGE ( 'NONE', *, *, #326, .F. ) ;
#192 = DIRECTION ( 'NONE',  ( 1.224646799147353200E-016, 1.000000000000000000, 0.0000000000000000000 ) ) ;
#193 = ORIENTED_EDGE ( 'NONE', *, *, #184, .T. ) ;
#194 =( NAMED_UNIT ( * ) PLANE_ANGLE_UNIT ( ) SI_UNIT ( $, .RADIAN. ) );
#195 = CARTESIAN_POINT ( 'NONE',  ( -10.26217568973925200, 1.256754061072695800E-015, 0.0000000000000000000 ) ) ;
#196 = VERTEX_POINT ( 'NONE', #25 ) ;
#197 = AXIS2_PLACEMENT_3D ( 'NONE', #11, #81, #344 ) ;
#198 = ORIENTED_EDGE ( 'NONE', *, *, #44, .T. ) ;
#199 = PLANE ( 'NONE',  #359 ) ;
#200 = DIRECTION ( 'NONE',  ( 1.000000000000000000, 0.0000000000000000000, 0.0000000000000000000 ) ) ;
#201 = VECTOR ( 'NONE', #151, 1000.000000000000200 ) ;
#202 = CALENDAR_DATE ( 2019, 9, 4 ) ;
#203 = AXIS2_PLACEMENT_3D ( 'NONE', #175, #150, #39 ) ;
#204 = CARTESIAN_POINT ( 'NONE',  ( 0.0000000000000000000, 0.0000000000000000000, 33.65566924038402900 ) ) ;
#205 = PERSON_AND_ORGANIZATION ( #65, #98 ) ;
#206 = DIRECTION ( 'NONE',  ( 1.000000000000000000, 0.0000000000000000000, 0.0000000000000000000 ) ) ;
#207 = ORIENTED_EDGE ( 'NONE', *, *, #334, .T. ) ;
#208 = DIRECTION ( 'NONE',  ( -0.0000000000000000000, -0.0000000000000000000, 1.000000000000000000 ) ) ;
#209 = CARTESIAN_POINT ( 'NONE',  ( 0.0000000000000000000, 0.0000000000000000000, 0.0000000000000000000 ) ) ;
#210 = DIRECTION ( 'NONE',  ( -0.0000000000000000000, -0.0000000000000000000, 1.000000000000000000 ) ) ;
#211 = CARTESIAN_POINT ( 'NONE',  ( 13.00000000000000000, 0.0000000000000000000, 4.742050807568884500 ) ) ;
#212 = DIRECTION ( 'NONE',  ( -1.000000000000000000, 0.0000000000000000000, 0.0000000000000000000 ) ) ;
#213 = DIRECTION ( 'NONE',  ( -0.0000000000000000000, -0.0000000000000000000, 1.000000000000000000 ) ) ;
#214 = FACE_OUTER_BOUND ( 'NONE', #12, .T. ) ;
#215 = EDGE_LOOP ( 'NONE', ( #245, #300 ) ) ;
#216 = AXIS2_PLACEMENT_3D ( 'NONE', #337, #268, #265 ) ;
#217 = EDGE_LOOP ( 'NONE', ( #133, #67 ) ) ;
#218 = COORDINATED_UNIVERSAL_TIME_OFFSET ( 5, 30, .AHEAD. ) ;
#219 = APPLICATION_PROTOCOL_DEFINITION ( 'international standard', 'config_control_design', 1994, #257 ) ;
#220 = SECURITY_CLASSIFICATION_LEVEL ( 'unclassified' ) ;
#221 = FACE_BOUND ( 'NONE', #215, .T. ) ;
#222 = AXIS2_PLACEMENT_3D ( 'NONE', #368, #43, #293 ) ;
#223 = ORIENTED_EDGE ( 'NONE', *, *, #338, .F. ) ;
#224 = LOCAL_TIME ( 15, 38, 15.00000000000000000, #158 ) ;
#225 = FACE_OUTER_BOUND ( 'NONE', #313, .T. ) ;
#226 = ORIENTED_EDGE ( 'NONE', *, *, #49, .T. ) ;
#227 = DIRECTION ( 'NONE',  ( -1.000000000000000000, 1.224646799147353200E-016, 0.0000000000000000000 ) ) ;
#228 = AXIS2_PLACEMENT_3D ( 'NONE', #233, #45, #170 ) ;
#229 = CIRCLE ( 'NONE', #369, 11.00000000000000000 ) ;
#230 = PRODUCT_DEFINITION_FORMATION_WITH_SPECIFIED_SOURCE ( 'ANY', '', #4, .NOT_KNOWN. ) ;
#231 = ADVANCED_FACE ( 'NONE', ( #364 ), #242, .T. ) ;
#232 = CC_DESIGN_PERSON_AND_ORGANIZATION_ASSIGNMENT ( #243, #328, ( #31 ) ) ;
#233 = CARTESIAN_POINT ( 'NONE',  ( 0.0000000000000000000, 0.0000000000000000000, 0.0000000000000000000 ) ) ;
#234 = ADVANCED_FACE ( 'NONE', ( #376 ), #199, .F. ) ;
#235 = ORIENTED_EDGE ( 'NONE', *, *, #123, .T. ) ;
#236 = CARTESIAN_POINT ( 'NONE',  ( -13.00000000000000000, 1.592040838891559100E-015, 4.742050807568884500 ) ) ;
#237 = AXIS2_PLACEMENT_3D ( 'NONE', #270, #320, #152 ) ;
#238 = CARTESIAN_POINT ( 'NONE',  ( 9.408710285118862900, 1.374377508408924700E-015, 33.65566924038402900 ) ) ;
#239 = VERTEX_POINT ( 'NONE', #236 ) ;
#240 = AXIS2_PLACEMENT_3D ( 'NONE', #10, #117, #262 ) ;
#241 = PLANE ( 'NONE',  #382 ) ;
#242 = CONICAL_SURFACE ( 'NONE', #126, 13.03657776635556700, 0.1396263401595396500 ) ;
#243 = PERSON_AND_ORGANIZATION ( #65, #98 ) ;
#244 = CARTESIAN_POINT ( 'NONE',  ( 0.0000000000000000000, 0.0000000000000000000, 0.0000000000000000000 ) ) ;
#245 = ORIENTED_EDGE ( 'NONE', *, *, #184, .F. ) ;
#246 = DIRECTION ( 'NONE',  ( 1.000000000000000000, 0.0000000000000000000, 0.0000000000000000000 ) ) ;
#247 = CALENDAR_DATE ( 2019, 9, 4 ) ;
#248 = EDGE_LOOP ( 'NONE', ( #143, #226 ) ) ;
#249 = DIRECTION ( 'NONE',  ( 1.000000000000000000, 0.0000000000000000000, 0.0000000000000000000 ) ) ;
#250 = CARTESIAN_POINT ( 'NONE',  ( 0.0000000000000000000, 0.0000000000000000000, 33.60000000000000100 ) ) ;
#251 = FACE_OUTER_BOUND ( 'NONE', #281, .T. ) ;
#252 = PERSON_AND_ORGANIZATION_ROLE ( 'design_owner' ) ;
#253 = DATE_TIME_ROLE ( 'classification_date' ) ;
#254 = CALENDAR_DATE ( 2019, 9, 4 ) ;
#255 = CC_DESIGN_DATE_AND_TIME_ASSIGNMENT ( #385, #142, ( #31 ) ) ;
#256 = AXIS2_PLACEMENT_3D ( 'NONE', #37, #192, #227 ) ;
#257 = APPLICATION_CONTEXT ( 'configuration controlled 3d designs of mechanical parts and assemblies' ) ;
#258 = ORIENTED_EDGE ( 'NONE', *, *, #5, .T. ) ;
#259 = ADVANCED_FACE ( 'NONE', ( #387 ), #129, .T. ) ;
#260 = LOCAL_TIME ( 15, 38, 15.00000000000000000, #16 ) ;
#261 = CC_DESIGN_PERSON_AND_ORGANIZATION_ASSIGNMENT ( #205, #64, ( #266 ) ) ;
#262 = DIRECTION ( 'NONE',  ( 1.000000000000000000, 0.0000000000000000000, 0.0000000000000000000 ) ) ;
#263 = ORIENTED_EDGE ( 'NONE', *, *, #156, .T. ) ;
#264 = PERSON_AND_ORGANIZATION ( #65, #98 ) ;
#265 = DIRECTION ( 'NONE',  ( 1.000000000000000000, 0.0000000000000000000, 0.0000000000000000000 ) ) ;
#266 = SECURITY_CLASSIFICATION ( '', '', #220 ) ;
#267 = VECTOR ( 'NONE', #278, 1000.000000000000000 ) ;
#268 = DIRECTION ( 'NONE',  ( 0.0000000000000000000, -0.0000000000000000000, 1.000000000000000000 ) ) ;
#269 = PRODUCT_RELATED_PRODUCT_CATEGORY ( 'detail', '', ( #4 ) ) ;
#270 = CARTESIAN_POINT ( 'NONE',  ( 0.0000000000000000000, 0.0000000000000000000, 4.742050807568884500 ) ) ;
#271 = ORIENTED_EDGE ( 'NONE', *, *, #355, .T. ) ;
#272 = CC_DESIGN_SECURITY_CLASSIFICATION ( #266, ( #230 ) ) ;
#273 = LOCAL_TIME ( 15, 38, 15.00000000000000000, #305 ) ;
#274 = DIRECTION ( 'NONE',  ( -0.0000000000000000000, -0.0000000000000000000, 1.000000000000000000 ) ) ;
#275 = DIRECTION ( 'NONE',  ( 1.000000000000000000, 0.0000000000000000000, 0.0000000000000000000 ) ) ;
#276 = CC_DESIGN_PERSON_AND_ORGANIZATION_ASSIGNMENT ( #264, #30, ( #230 ) ) ;
#277 = DIRECTION ( 'NONE',  ( 0.0000000000000000000, 0.0000000000000000000, -1.000000000000000000 ) ) ;
#278 = DIRECTION ( 'NONE',  ( -0.1391731009600587800, 0.0000000000000000000, -0.9902680687415712500 ) ) ;
#279 = ADVANCED_FACE ( 'NONE', ( #251 ), #115, .T. ) ;
#280 = DIRECTION ( 'NONE',  ( 0.0000000000000000000, -0.0000000000000000000, 1.000000000000000000 ) ) ;
#281 = EDGE_LOOP ( 'NONE', ( #193, #80, #169, #295 ) ) ;
#282 = DIRECTION ( 'NONE',  ( 1.000000000000000000, 0.0000000000000000000, 0.0000000000000000000 ) ) ;
#283 = DIRECTION ( 'NONE',  ( -0.0000000000000000000, -0.0000000000000000000, 1.000000000000000000 ) ) ;
#284 = CC_DESIGN_APPROVAL ( #310, ( #266 ) ) ;
#285 = CARTESIAN_POINT ( 'NONE',  ( -11.00000000000000000, 1.347111479062088400E-015, 101.8074564848000400 ) ) ;
#286 = CC_DESIGN_PERSON_AND_ORGANIZATION_ASSIGNMENT ( #179, #190, ( #230 ) ) ;
#287 = DIRECTION ( 'NONE',  ( 1.000000000000000000, 0.0000000000000000000, 0.0000000000000000000 ) ) ;
#288 = DIRECTION ( 'NONE',  ( -0.0000000000000000000, -0.0000000000000000000, 1.000000000000000000 ) ) ;
#289 = CC_DESIGN_APPROVAL ( #318, ( #230 ) ) ;
#290 = ORIENTED_EDGE ( 'NONE', *, *, #156, .F. ) ;
#291 = APPROVAL_STATUS ( 'not_yet_approved' ) ;
#292 = APPROVAL_ROLE ( '' ) ;
#293 = DIRECTION ( 'NONE',  ( 1.000000000000000000, 0.0000000000000000000, 0.0000000000000000000 ) ) ;
#294 = ORIENTED_EDGE ( 'NONE', *, *, #348, .T. ) ;
#295 = ORIENTED_EDGE ( 'NONE', *, *, #325, .F. ) ;
#296 = CC_DESIGN_APPROVAL ( #33, ( #31 ) ) ;
#297 = CYLINDRICAL_SURFACE ( 'NONE', #203, 11.00000000000000000 ) ;
#298 = DIRECTION ( 'NONE',  ( -1.000000000000000000, 0.0000000000000000000, -0.0000000000000000000 ) ) ;
#299 = DATE_AND_TIME ( #381, #273 ) ;
#300 = ORIENTED_EDGE ( 'NONE', *, *, #348, .F. ) ;
#301 = LINE ( 'NONE', #285, #122 ) ;
#302 = ORIENTED_EDGE ( 'NONE', *, *, #49, .F. ) ;
#303 = AXIS2_PLACEMENT_3D ( 'NONE', #356, #288, #249 ) ;
#304 = DIRECTION ( 'NONE',  ( -0.0000000000000000000, -0.0000000000000000000, 1.000000000000000000 ) ) ;
#305 = COORDINATED_UNIVERSAL_TIME_OFFSET ( 5, 30, .AHEAD. ) ;
#306 = DIRECTION ( 'NONE',  ( -1.000000000000000000, 0.0000000000000000000, -0.0000000000000000000 ) ) ;
#307 = CIRCLE ( 'NONE', #79, 9.012603057622234500 ) ;
#308 = ORIENTED_EDGE ( 'NONE', *, *, #123, .F. ) ;
#309 = CARTESIAN_POINT ( 'NONE',  ( 0.0000000000000000000, 0.0000000000000000000, 4.742050807568884500 ) ) ;
#310 = APPROVAL ( #92, 'UNSPECIFIED' ) ;
#311 = LINE ( 'NONE', #154, #267 ) ;
#312 = DIRECTION ( 'NONE',  ( 1.000000000000000000, 0.0000000000000000000, 0.0000000000000000000 ) ) ;
#313 = EDGE_LOOP ( 'NONE', ( #271, #352, #52, #360 ) ) ;
#314 = ORIENTED_EDGE ( 'NONE', *, *, #373, .T. ) ;
#315 = ORIENTED_EDGE ( 'NONE', *, *, #153, .F. ) ;
#316 = CARTESIAN_POINT ( 'NONE',  ( 0.0000000000000000000, 13.00000000000000000, 4.742050807568884500 ) ) ;
#317 = DIRECTION ( 'NONE',  ( -0.0000000000000000000, -0.0000000000000000000, 1.000000000000000000 ) ) ;
#318 = APPROVAL ( #160, 'UNSPECIFIED' ) ;
#319 = FACE_OUTER_BOUND ( 'NONE', #248, .T. ) ;
#320 = DIRECTION ( 'NONE',  ( -0.0000000000000000000, -0.0000000000000000000, 1.000000000000000000 ) ) ;
#321 = CC_DESIGN_DATE_AND_TIME_ASSIGNMENT ( #299, #253, ( #266 ) ) ;
#322 = DIRECTION ( 'NONE',  ( -0.0000000000000000000, -0.0000000000000000000, 1.000000000000000000 ) ) ;
#323 = EDGE_LOOP ( 'NONE', ( #131, #263, #118, #185 ) ) ;
#324 = CARTESIAN_POINT ( 'NONE',  ( 9.012603057622234500, 0.0000000000000000000, 34.00000000000000000 ) ) ;
#325 = EDGE_CURVE ( 'NONE', #345, #180, #121, .T. ) ;
#326 = EDGE_CURVE ( 'NONE', #362, #239, #96, .T. ) ;
#327 = EDGE_CURVE ( 'NONE', #17, #239, #29, .T. ) ;
#328 = PERSON_AND_ORGANIZATION_ROLE ( 'creator' ) ;
#329 = EDGE_CURVE ( 'NONE', #136, #180, #229, .T. ) ;
#330 = DIRECTION ( 'NONE',  ( -0.0000000000000000000, -0.0000000000000000000, 1.000000000000000000 ) ) ;
#331 = DIRECTION ( 'NONE',  ( 0.4999999999999957800, 0.0000000000000000000, 0.8660254037844410400 ) ) ;
#332 = EDGE_CURVE ( 'NONE', #120, #35, #159, .T. ) ;
#333 = PERSON_AND_ORGANIZATION ( #65, #98 ) ;
#334 = EDGE_CURVE ( 'NONE', #69, #120, #91, .T. ) ;
#335 = CIRCLE ( 'NONE', #116, 11.00000000000000000 ) ;
#336 = CARTESIAN_POINT ( 'NONE',  ( -10.26217568973925200, 1.424397449982127500E-015, 0.0000000000000000000 ) ) ;
#337 = CARTESIAN_POINT ( 'NONE',  ( 0.0000000000000000000, 13.03657776635556700, 7.842050807568883300 ) ) ;
#338 = EDGE_CURVE ( 'NONE', #362, #109, #351, .T. ) ;
#339 = PRODUCT_DEFINITION_SHAPE ( 'NONE', 'NONE',  #31 ) ;
#340 = PERSON_AND_ORGANIZATION ( #65, #98 ) ;
#341 = CARTESIAN_POINT ( 'NONE',  ( 0.0000000000000000000, 0.0000000000000000000, 33.60000000000000100 ) ) ;
#342 = CARTESIAN_POINT ( 'NONE',  ( 0.0000000000000000000, 9.012603057622234500, 34.00000000000000000 ) ) ;
#343 = ORIENTED_EDGE ( 'NONE', *, *, #161, .T. ) ;
#344 = DIRECTION ( 'NONE',  ( -1.000000000000000000, 0.0000000000000000000, 0.0000000000000000000 ) ) ;
#345 = VERTEX_POINT ( 'NONE', #58 ) ;
#346 = LOCAL_TIME ( 15, 38, 15.00000000000000000, #218 ) ;
#347 = UNCERTAINTY_MEASURE_WITH_UNIT (LENGTH_MEASURE( 1.000000000000000100E-005 ), #9, 'distance_accuracy_value', 'NONE');
#348 = EDGE_CURVE ( 'NONE', #196, #345, #181, .T. ) ;
#349 = ORIENTED_EDGE ( 'NONE', *, *, #111, .F. ) ;
#350 = AXIS2_PLACEMENT_3D ( 'NONE', #94, #304, #372 ) ;
#351 = CIRCLE ( 'NONE', #240, 10.26217568973925200 ) ;
#352 = ORIENTED_EDGE ( 'NONE', *, *, #326, .T. ) ;
#353 = AXIS2_PLACEMENT_3D ( 'NONE', #137, #183, #140 ) ;
#354 = CARTESIAN_POINT ( 'NONE',  ( 10.26217568973925200, 0.0000000000000000000, 0.0000000000000000000 ) ) ;
#355 = EDGE_CURVE ( 'NONE', #109, #362, #61, .T. ) ;
#356 = CARTESIAN_POINT ( 'NONE',  ( 0.0000000000000000000, 0.0000000000000000000, 34.00000000000000000 ) ) ;
#357 = APPROVAL_ROLE ( '' ) ;
#358 = ORIENTED_EDGE ( 'NONE', *, *, #355, .F. ) ;
#359 = AXIS2_PLACEMENT_3D ( 'NONE', #342, #149, #306 ) ;
#360 = ORIENTED_EDGE ( 'NONE', *, *, #5, .F. ) ;
#361 = CIRCLE ( 'NONE', #42, 9.408710285118862900 ) ;
#362 = VERTEX_POINT ( 'NONE', #336 ) ;
#363 = APPROVAL_DATE_TIME ( #371, #318 ) ;
#364 = FACE_OUTER_BOUND ( 'NONE', #171, .T. ) ;
#365 = ADVANCED_FACE ( 'NONE', ( #102, #20 ), #167, .F. ) ;
#366 = EDGE_LOOP ( 'NONE', ( #383, #367 ) ) ;
#367 = ORIENTED_EDGE ( 'NONE', *, *, #332, .T. ) ;
#368 = CARTESIAN_POINT ( 'NONE',  ( 0.0000000000000000000, 0.0000000000000000000, 7.842050807568876200 ) ) ;
#369 = AXIS2_PLACEMENT_3D ( 'NONE', #34, #213, #287 ) ;
#370 = DIRECTION ( 'NONE',  ( 1.000000000000000000, 0.0000000000000000000, 0.0000000000000000000 ) ) ;
#371 = DATE_AND_TIME ( #108, #40 ) ;
#372 = DIRECTION ( 'NONE',  ( 1.000000000000000000, 0.0000000000000000000, 0.0000000000000000000 ) ) ;
#373 = EDGE_CURVE ( 'NONE', #104, #125, #14, .T. ) ;
#374 = CARTESIAN_POINT ( 'NONE',  ( 11.00000000000000000, 0.0000000000000000000, 7.842050807568890400 ) ) ;
#375 = AXIS2_PLACEMENT_3D ( 'NONE', #250, #105, #200 ) ;
#376 = FACE_OUTER_BOUND ( 'NONE', #366, .T. ) ;
#377 = CARTESIAN_POINT ( 'NONE',  ( 9.012603057622234500, 0.0000000000000000000, 33.60000000000000100 ) ) ;
#378 = ORIENTED_EDGE ( 'NONE', *, *, #66, .F. ) ;
#379 = CARTESIAN_POINT ( 'NONE',  ( -13.03657776635556700, 0.0000000000000000000, 7.842050807568876200 ) ) ;
#380 = ADVANCED_FACE ( 'NONE', ( #7 ), #22, .T. ) ;
#381 = CALENDAR_DATE ( 2019, 9, 4 ) ;
#382 = AXIS2_PLACEMENT_3D ( 'NONE', #316, #176, #298 ) ;
#383 = ORIENTED_EDGE ( 'NONE', *, *, #111, .T. ) ;
#384 = PLANE ( 'NONE',  #59 ) ;
#385 = DATE_AND_TIME ( #247, #260 ) ;
#386 = CARTESIAN_POINT ( 'NONE',  ( 0.0000000000000000000, 0.0000000000000000000, 33.65566924038402900 ) ) ;
#387 = FACE_OUTER_BOUND ( 'NONE', #113, .T. ) ;
ENDSEC;
END-ISO-10303-21;
