ISO-10303-21;
HEADER;
FILE_DESCRIPTION (( 'STEP AP203' ),
    '1' );
FILE_NAME ('TAP COLLET ER 25G  3.5 X 2.7.STEP',
    '2019-04-09T09:39:05',
    ( '' ),
    ( '' ),
    'SwSTEP 2.0',
    'SolidWorks 2014',
    '' );
FILE_SCHEMA (( 'CONFIG_CONTROL_DESIGN' ));
ENDSEC;

DATA;
#1 = FACE_OUTER_BOUND ( 'NONE', #188, .T. ) ;
#2 = CIRCLE ( 'NONE', #336, 9.408710285118862900 ) ;
#3 = CARTESIAN_POINT ( 'NONE',  ( -11.00000000000000000, 1.347111479062088400E-015, 4.742050807568884500 ) ) ;
#4 = CARTESIAN_POINT ( 'NONE',  ( 10.26217568973925200, 0.0000000000000000000, 0.0000000000000000000 ) ) ;
#5 = CALENDAR_DATE ( 2019, 9, 4 ) ;
#6 = ORIENTED_EDGE ( 'NONE', *, *, #91, .T. ) ;
#7 =( NAMED_UNIT ( * ) PLANE_ANGLE_UNIT ( ) SI_UNIT ( $, .RADIAN. ) );
#8 = MANIFOLD_SOLID_BREP ( 'Revolve1', #283 ) ;
#9 = ORIENTED_EDGE ( 'NONE', *, *, #251, .T. ) ;
#10 = ORIENTED_EDGE ( 'NONE', *, *, #364, .F. ) ;
#11 = VECTOR ( 'NONE', #287, 1000.000000000000000 ) ;
#12 = FACE_OUTER_BOUND ( 'NONE', #387, .T. ) ;
#13 = CC_DESIGN_APPROVAL ( #344, ( #242 ) ) ;
#14 = PRODUCT ( 'TAP COLLET ER 25G  3.5 X 2.7', 'TAP COLLET ER 25G  3.5 X 2.7', '', ( #347 ) ) ;
#15 = TOROIDAL_SURFACE ( 'NONE', #172, 9.012603057622234500, 0.4000000000000009700 ) ;
#16 = PERSON_AND_ORGANIZATION ( #163, #93 ) ;
#17 = EDGE_CURVE ( 'NONE', #180, #281, #159, .T. ) ;
#18 = ORIENTED_EDGE ( 'NONE', *, *, #349, .F. ) ;
#19 = CONICAL_SURFACE ( 'NONE', #377, 13.03657776635556700, 0.1396263401595396500 ) ;
#20 = EDGE_CURVE ( 'NONE', #85, #122, #237, .T. ) ;
#21 = EDGE_CURVE ( 'NONE', #90, #151, #69, .T. ) ;
#22 = AXIS2_PLACEMENT_3D ( 'NONE', #379, #268, #300 ) ;
#23 = DIRECTION ( 'NONE',  ( -0.0000000000000000000, -0.0000000000000000000, 1.000000000000000000 ) ) ;
#24 = CIRCLE ( 'NONE', #308, 11.00000000000000000 ) ;
#25 = DIRECTION ( 'NONE',  ( 1.000000000000000000, 0.0000000000000000000, 0.0000000000000000000 ) ) ;
#26 = DIRECTION ( 'NONE',  ( -0.0000000000000000000, -0.0000000000000000000, 1.000000000000000000 ) ) ;
#27 = VERTEX_POINT ( 'NONE', #309 ) ;
#28 = ORIENTED_EDGE ( 'NONE', *, *, #72, .F. ) ;
#29 = ADVANCED_FACE ( 'NONE', ( #182 ), #98, .F. ) ;
#30 = APPROVAL_ROLE ( '' ) ;
#31 = AXIS2_PLACEMENT_3D ( 'NONE', #99, #338, #138 ) ;
#32 = VERTEX_POINT ( 'NONE', #280 ) ;
#33 = FACE_OUTER_BOUND ( 'NONE', #136, .T. ) ;
#34 = DATE_TIME_ROLE ( 'classification_date' ) ;
#35 = CARTESIAN_POINT ( 'NONE',  ( -13.00000000000000000, 1.592040838891559100E-015, 4.742050807568884500 ) ) ;
#36 = ORIENTED_EDGE ( 'NONE', *, *, #331, .F. ) ;
#37 = AXIS2_PLACEMENT_3D ( 'NONE', #110, #66, #42 ) ;
#38 = CC_DESIGN_PERSON_AND_ORGANIZATION_ASSIGNMENT ( #16, #92, ( #14 ) ) ;
#39 = DIRECTION ( 'NONE',  ( -0.0000000000000000000, -0.0000000000000000000, 1.000000000000000000 ) ) ;
#40 = COORDINATED_UNIVERSAL_TIME_OFFSET ( 5, 30, .AHEAD. ) ;
#41 = ORIENTED_EDGE ( 'NONE', *, *, #91, .F. ) ;
#42 = DIRECTION ( 'NONE',  ( 1.000000000000000000, 0.0000000000000000000, 0.0000000000000000000 ) ) ;
#43 = ORIENTED_EDGE ( 'NONE', *, *, #162, .T. ) ;
#44 = DIRECTION ( 'NONE',  ( -0.0000000000000000000, -0.0000000000000000000, 1.000000000000000000 ) ) ;
#45 = ORIENTED_EDGE ( 'NONE', *, *, #72, .T. ) ;
#46 = LINE ( 'NONE', #272, #362 ) ;
#47 = FACE_OUTER_BOUND ( 'NONE', #298, .T. ) ;
#48 = CIRCLE ( 'NONE', #169, 0.4000000000000010200 ) ;
#49 = CARTESIAN_POINT ( 'NONE',  ( 0.0000000000000000000, 0.0000000000000000000, 7.842050807568876200 ) ) ;
#50 = LOCAL_TIME ( 15, 9, 5.000000000000000000, #125 ) ;
#51 = ORIENTED_EDGE ( 'NONE', *, *, #195, .F. ) ;
#52 = PERSON_AND_ORGANIZATION_ROLE ( 'classification_officer' ) ;
#53 = ORIENTED_EDGE ( 'NONE', *, *, #329, .F. ) ;
#54 = CIRCLE ( 'NONE', #194, 9.012603057622234500 ) ;
#55 = ORIENTED_EDGE ( 'NONE', *, *, #112, .F. ) ;
#56 = CARTESIAN_POINT ( 'NONE',  ( 0.0000000000000000000, 0.0000000000000000000, 4.742050807568884500 ) ) ;
#57 = EDGE_LOOP ( 'NONE', ( #243, #256, #158, #206 ) ) ;
#58 = CARTESIAN_POINT ( 'NONE',  ( 13.03657776635556700, 1.596520323340289600E-015, 7.842050807568876200 ) ) ;
#59 = AXIS2_PLACEMENT_3D ( 'NONE', #76, #39, #306 ) ;
#60 = DIRECTION ( 'NONE',  ( 1.000000000000000000, 0.0000000000000000000, 0.0000000000000000000 ) ) ;
#61 = PERSON_AND_ORGANIZATION_ROLE ( 'design_supplier' ) ;
#62 = APPROVAL_DATE_TIME ( #135, #96 ) ;
#63 = ORIENTED_EDGE ( 'NONE', *, *, #203, .F. ) ;
#64 = CARTESIAN_POINT ( 'NONE',  ( -13.03657776635556700, 0.0000000000000000000, 7.842050807568876200 ) ) ;
#65 = CIRCLE ( 'NONE', #59, 13.00000000000000000 ) ;
#66 = DIRECTION ( 'NONE',  ( 0.0000000000000000000, 0.0000000000000000000, 1.000000000000000000 ) ) ;
#67 = FACE_OUTER_BOUND ( 'NONE', #291, .T. ) ;
#68 = AXIS2_PLACEMENT_3D ( 'NONE', #305, #44, #365 ) ;
#69 = CIRCLE ( 'NONE', #119, 13.03657776635556700 ) ;
#70 = DIRECTION ( 'NONE',  ( 1.000000000000000000, 0.0000000000000000000, 0.0000000000000000000 ) ) ;
#71 = DIRECTION ( 'NONE',  ( 0.0000000000000000000, -0.0000000000000000000, 1.000000000000000000 ) ) ;
#72 = EDGE_CURVE ( 'NONE', #151, #90, #276, .T. ) ;
#73 = CARTESIAN_POINT ( 'NONE',  ( 0.0000000000000000000, 0.0000000000000000000, 7.842050807568876200 ) ) ;
#74 = APPROVAL_PERSON_ORGANIZATION ( #144, #96, #30 ) ;
#75 = EDGE_LOOP ( 'NONE', ( #28, #154 ) ) ;
#76 = CARTESIAN_POINT ( 'NONE',  ( 0.0000000000000000000, 0.0000000000000000000, 4.742050807568884500 ) ) ;
#77 = COORDINATED_UNIVERSAL_TIME_OFFSET ( 5, 30, .AHEAD. ) ;
#78 = LINE ( 'NONE', #109, #141 ) ;
#79 = FACE_OUTER_BOUND ( 'NONE', #265, .T. ) ;
#80 = CARTESIAN_POINT ( 'NONE',  ( -9.012603057622234500, 1.103725548650271700E-015, 33.60000000000000100 ) ) ;
#81 = PERSON_AND_ORGANIZATION_ROLE ( 'creator' ) ;
#82 = APPROVAL_ROLE ( '' ) ;
#83 = DIRECTION ( 'NONE',  ( -0.0000000000000000000, -0.0000000000000000000, 1.000000000000000000 ) ) ;
#84 = LOCAL_TIME ( 15, 9, 5.000000000000000000, #161 ) ;
#85 = VERTEX_POINT ( 'NONE', #190 ) ;
#86 = TOROIDAL_SURFACE ( 'NONE', #294, 9.012603057622234500, 0.4000000000000009700 ) ;
#87 = DIRECTION ( 'NONE',  ( 0.0000000000000000000, 0.0000000000000000000, -1.000000000000000000 ) ) ;
#88 = ORIENTED_EDGE ( 'NONE', *, *, #323, .T. ) ;
#89 = DIRECTION ( 'NONE',  ( 1.000000000000000000, 0.0000000000000000000, 0.0000000000000000000 ) ) ;
#90 = VERTEX_POINT ( 'NONE', #58 ) ;
#91 = EDGE_CURVE ( 'NONE', #281, #249, #386, .T. ) ;
#92 = PERSON_AND_ORGANIZATION_ROLE ( 'design_owner' ) ;
#93 = ORGANIZATION ( 'UNSPECIFIED', 'UNSPECIFIED', '' ) ;
#94 = ORIENTED_EDGE ( 'NONE', *, *, #226, .T. ) ;
#95 = ORIENTED_EDGE ( 'NONE', *, *, #330, .F. ) ;
#96 = APPROVAL ( #285, 'UNSPECIFIED' ) ;
#97 = DIRECTION ( 'NONE',  ( 0.1391731009600587800, 1.704378926181474000E-017, -0.9902680687415712500 ) ) ;
#98 = PLANE ( 'NONE',  #132 ) ;
#99 = CARTESIAN_POINT ( 'NONE',  ( 0.0000000000000000000, 13.03657776635556700, 7.842050807568883300 ) ) ;
#100 = DIRECTION ( 'NONE',  ( -1.000000000000000000, 0.0000000000000000000, -0.0000000000000000000 ) ) ;
#101 = AXIS2_PLACEMENT_3D ( 'NONE', #107, #124, #278 ) ;
#102 = ORIENTED_EDGE ( 'NONE', *, *, #214, .F. ) ;
#103 = AXIS2_PLACEMENT_3D ( 'NONE', #247, #359, #177 ) ;
#104 = ORIENTED_EDGE ( 'NONE', *, *, #195, .T. ) ;
#105 = APPROVAL_DATE_TIME ( #185, #384 ) ;
#106 = DIRECTION ( 'NONE',  ( 1.000000000000000000, 0.0000000000000000000, 0.0000000000000000000 ) ) ;
#107 = CARTESIAN_POINT ( 'NONE',  ( 0.0000000000000000000, 0.0000000000000000000, 34.00000000000000000 ) ) ;
#108 = ORIENTED_EDGE ( 'NONE', *, *, #214, .T. ) ;
#109 = CARTESIAN_POINT ( 'NONE',  ( 11.00000000000000000, 0.0000000000000000000, 101.8074564848000400 ) ) ;
#110 = CARTESIAN_POINT ( 'NONE',  ( 0.0000000000000000000, 0.0000000000000000000, 0.0000000000000000000 ) ) ;
#111 = DIRECTION ( 'NONE',  ( -0.0000000000000000000, -0.0000000000000000000, 1.000000000000000000 ) ) ;
#112 = EDGE_CURVE ( 'NONE', #290, #122, #343, .T. ) ;
#113 = CARTESIAN_POINT ( 'NONE',  ( 0.0000000000000000000, 13.00000000000000000, 4.742050807568884500 ) ) ;
#114 = EDGE_CURVE ( 'NONE', #85, #213, #2, .T. ) ;
#115 = APPROVAL_PERSON_ORGANIZATION ( #193, #384, #82 ) ;
#116 = AXIS2_PLACEMENT_3D ( 'NONE', #123, #26, #178 ) ;
#117 = CARTESIAN_POINT ( 'NONE',  ( -11.00000000000000000, 1.347111479062088400E-015, 7.842050807568890400 ) ) ;
#118 = SHAPE_DEFINITION_REPRESENTATION ( #248, #121 ) ;
#119 = AXIS2_PLACEMENT_3D ( 'NONE', #73, #23, #60 ) ;
#120 = CARTESIAN_POINT ( 'NONE',  ( 0.0000000000000000000, 0.0000000000000000000, 34.00000000000000000 ) ) ;
#121 = ADVANCED_BREP_SHAPE_REPRESENTATION ( 'TAP COLLET ER 25G  3.5 X 2.7', ( #8, #37 ), #302 ) ;
#122 = VERTEX_POINT ( 'NONE', #360 ) ;
#123 = CARTESIAN_POINT ( 'NONE',  ( 0.0000000000000000000, 0.0000000000000000000, 101.8074564848000400 ) ) ;
#124 = DIRECTION ( 'NONE',  ( -0.0000000000000000000, -0.0000000000000000000, 1.000000000000000000 ) ) ;
#125 = COORDINATED_UNIVERSAL_TIME_OFFSET ( 5, 30, .AHEAD. ) ;
#126 = AXIS2_PLACEMENT_3D ( 'NONE', #179, #212, #361 ) ;
#127 = ORIENTED_EDGE ( 'NONE', *, *, #331, .T. ) ;
#128 = DIRECTION ( 'NONE',  ( -0.0000000000000000000, -0.0000000000000000000, 1.000000000000000000 ) ) ;
#129 = APPROVAL_ROLE ( '' ) ;
#130 = APPLICATION_PROTOCOL_DEFINITION ( 'international standard', 'config_control_design', 1994, #211 ) ;
#131 = FACE_BOUND ( 'NONE', #254, .T. ) ;
#132 = AXIS2_PLACEMENT_3D ( 'NONE', #167, #71, #383 ) ;
#133 = ORIENTED_EDGE ( 'NONE', *, *, #251, .F. ) ;
#134 = DIRECTION ( 'NONE',  ( -0.0000000000000000000, -0.0000000000000000000, 1.000000000000000000 ) ) ;
#135 = DATE_AND_TIME ( #219, #297 ) ;
#136 = EDGE_LOOP ( 'NONE', ( #311, #127, #156, #55 ) ) ;
#137 = ORIENTED_EDGE ( 'NONE', *, *, #330, .T. ) ;
#138 = DIRECTION ( 'NONE',  ( 1.000000000000000000, 0.0000000000000000000, 0.0000000000000000000 ) ) ;
#139 = DIRECTION ( 'NONE',  ( 1.000000000000000000, 0.0000000000000000000, 0.0000000000000000000 ) ) ;
#140 = DIRECTION ( 'NONE',  ( -0.0000000000000000000, -0.0000000000000000000, 1.000000000000000000 ) ) ;
#141 = VECTOR ( 'NONE', #366, 1000.000000000000000 ) ;
#142 = DIRECTION ( 'NONE',  ( -1.000000000000000000, 0.0000000000000000000, 0.0000000000000000000 ) ) ;
#143 = APPROVAL_STATUS ( 'not_yet_approved' ) ;
#144 = PERSON_AND_ORGANIZATION ( #163, #93 ) ;
#145 = ADVANCED_FACE ( 'NONE', ( #165, #346 ), #239, .F. ) ;
#146 = PERSON_AND_ORGANIZATION_ROLE ( 'creator' ) ;
#147 = CARTESIAN_POINT ( 'NONE',  ( 0.0000000000000000000, 0.0000000000000000000, 33.65566924038402900 ) ) ;
#148 = ORIENTED_EDGE ( 'NONE', *, *, #226, .F. ) ;
#149 = DIRECTION ( 'NONE',  ( 1.224646799147353200E-016, 1.000000000000000000, 0.0000000000000000000 ) ) ;
#150 = DIRECTION ( 'NONE',  ( -0.0000000000000000000, -0.0000000000000000000, 1.000000000000000000 ) ) ;
#151 = VERTEX_POINT ( 'NONE', #64 ) ;
#152 = DIRECTION ( 'NONE',  ( 1.000000000000000000, 0.0000000000000000000, 0.0000000000000000000 ) ) ;
#153 = DIRECTION ( 'NONE',  ( 0.0000000000000000000, 0.0000000000000000000, -1.000000000000000000 ) ) ;
#154 = ORIENTED_EDGE ( 'NONE', *, *, #21, .F. ) ;
#155 = DIRECTION ( 'NONE',  ( 1.000000000000000000, 0.0000000000000000000, 0.0000000000000000000 ) ) ;
#156 = ORIENTED_EDGE ( 'NONE', *, *, #20, .T. ) ;
#157 = PERSON_AND_ORGANIZATION ( #163, #93 ) ;
#158 = ORIENTED_EDGE ( 'NONE', *, *, #356, .F. ) ;
#159 = LINE ( 'NONE', #215, #11 ) ;
#160 = DATE_TIME_ROLE ( 'creation_date' ) ;
#161 = COORDINATED_UNIVERSAL_TIME_OFFSET ( 5, 30, .AHEAD. ) ;
#162 = EDGE_CURVE ( 'NONE', #27, #32, #333, .T. ) ;
#163 = PERSON ( 'UNSPECIFIED', 'UNSPECIFIED', 'UNSPECIFIED', ('UNSPECIFIED'), ('UNSPECIFIED'), ('UNSPECIFIED') ) ;
#164 = CARTESIAN_POINT ( 'NONE',  ( -9.408710285118862900, 0.0000000000000000000, 33.65566924038402900 ) ) ;
#165 = FACE_OUTER_BOUND ( 'NONE', #75, .T. ) ;
#166 = AXIS2_PLACEMENT_3D ( 'NONE', #113, #234, #100 ) ;
#167 = CARTESIAN_POINT ( 'NONE',  ( 0.0000000000000000000, 0.0000000000000000000, 0.0000000000000000000 ) ) ;
#168 = ORIENTED_EDGE ( 'NONE', *, *, #114, .F. ) ;
#169 = AXIS2_PLACEMENT_3D ( 'NONE', #80, #149, #230 ) ;
#170 = CARTESIAN_POINT ( 'NONE',  ( 11.00000000000000000, 0.0000000000000000000, 7.842050807568890400 ) ) ;
#171 = VERTEX_POINT ( 'NONE', #374 ) ;
#172 = AXIS2_PLACEMENT_3D ( 'NONE', #299, #128, #271 ) ;
#173 = DIRECTION ( 'NONE',  ( 0.4999999999999957800, 0.0000000000000000000, 0.8660254037844410400 ) ) ;
#174 = ADVANCED_FACE ( 'NONE', ( #12 ), #197, .T. ) ;
#175 = LINE ( 'NONE', #385, #337 ) ;
#176 = CARTESIAN_POINT ( 'NONE',  ( 0.0000000000000000000, 0.0000000000000000000, 0.0000000000000000000 ) ) ;
#177 = DIRECTION ( 'NONE',  ( 1.000000000000000000, 0.0000000000000000000, 0.0000000000000000000 ) ) ;
#178 = DIRECTION ( 'NONE',  ( 1.000000000000000000, 0.0000000000000000000, 0.0000000000000000000 ) ) ;
#179 = CARTESIAN_POINT ( 'NONE',  ( 0.0000000000000000000, 0.0000000000000000000, 4.742050807568884500 ) ) ;
#180 = VERTEX_POINT ( 'NONE', #3 ) ;
#181 = APPROVAL_STATUS ( 'not_yet_approved' ) ;
#182 = FACE_OUTER_BOUND ( 'NONE', #235, .T. ) ;
#183 = ADVANCED_FACE ( 'NONE', ( #67 ), #310, .T. ) ;
#184 = ADVANCED_FACE ( 'NONE', ( #79 ), #350, .T. ) ;
#185 = DATE_AND_TIME ( #269, #345 ) ;
#186 = ORIENTED_EDGE ( 'NONE', *, *, #349, .T. ) ;
#187 = SECURITY_CLASSIFICATION_LEVEL ( 'unclassified' ) ;
#188 = EDGE_LOOP ( 'NONE', ( #51, #36, #196, #45 ) ) ;
#189 = VECTOR ( 'NONE', #207, 1000.000000000000000 ) ;
#190 = CARTESIAN_POINT ( 'NONE',  ( 9.408710285118862900, 1.374377508408924700E-015, 33.65566924038402900 ) ) ;
#191 = CC_DESIGN_PERSON_AND_ORGANIZATION_ASSIGNMENT ( #157, #146, ( #242 ) ) ;
#192 = PRODUCT_DEFINITION_FORMATION_WITH_SPECIFIED_SOURCE ( 'ANY', '', #14, .NOT_KNOWN. ) ;
#193 = PERSON_AND_ORGANIZATION ( #163, #93 ) ;
#194 = AXIS2_PLACEMENT_3D ( 'NONE', #120, #83, #139 ) ;
#195 = EDGE_CURVE ( 'NONE', #85, #90, #175, .T. ) ;
#196 = ORIENTED_EDGE ( 'NONE', *, *, #201, .T. ) ;
#197 = CYLINDRICAL_SURFACE ( 'NONE', #116, 11.00000000000000000 ) ;
#198 = DIRECTION ( 'NONE',  ( -0.4999999999999957800, 6.123233995736714300E-017, 0.8660254037844410400 ) ) ;
#199 = ADVANCED_FACE ( 'NONE', ( #33 ), #86, .T. ) ;
#200 = FACE_OUTER_BOUND ( 'NONE', #316, .T. ) ;
#201 = EDGE_CURVE ( 'NONE', #213, #151, #223, .T. ) ;
#202 = DIRECTION ( 'NONE',  ( -0.0000000000000000000, -0.0000000000000000000, 1.000000000000000000 ) ) ;
#203 = EDGE_CURVE ( 'NONE', #180, #284, #24, .T. ) ;
#204 = ORIENTED_EDGE ( 'NONE', *, *, #356, .T. ) ;
#205 = CARTESIAN_POINT ( 'NONE',  ( 11.00000000000000000, 0.0000000000000000000, 4.742050807568884500 ) ) ;
#206 = ORIENTED_EDGE ( 'NONE', *, *, #20, .F. ) ;
#207 = DIRECTION ( 'NONE',  ( -0.1391731009600587800, 0.0000000000000000000, -0.9902680687415712500 ) ) ;
#208 = AXIS2_PLACEMENT_3D ( 'NONE', #56, #267, #253 ) ;
#209 = PERSON_AND_ORGANIZATION ( #163, #93 ) ;
#210 = ORIENTED_EDGE ( 'NONE', *, *, #112, .T. ) ;
#211 = APPLICATION_CONTEXT ( 'configuration controlled 3d designs of mechanical parts and assemblies' ) ;
#212 = DIRECTION ( 'NONE',  ( -0.0000000000000000000, -0.0000000000000000000, 1.000000000000000000 ) ) ;
#213 = VERTEX_POINT ( 'NONE', #164 ) ;
#214 = EDGE_CURVE ( 'NONE', #32, #27, #332, .T. ) ;
#215 = CARTESIAN_POINT ( 'NONE',  ( -11.00000000000000000, 1.347111479062088400E-015, 101.8074564848000400 ) ) ;
#216 = CIRCLE ( 'NONE', #266, 11.00000000000000000 ) ;
#217 = APPLICATION_CONTEXT ( 'configuration controlled 3d designs of mechanical parts and assemblies' ) ;
#218 = AXIS2_PLACEMENT_3D ( 'NONE', #259, #87, #296 ) ;
#219 = CALENDAR_DATE ( 2019, 9, 4 ) ;
#220 = AXIS2_PLACEMENT_3D ( 'NONE', #147, #303, #106 ) ;
#221 = ORIENTED_EDGE ( 'NONE', *, *, #329, .T. ) ;
#222 = DIRECTION ( 'NONE',  ( 0.0000000000000000000, 0.0000000000000000000, -1.000000000000000000 ) ) ;
#223 = LINE ( 'NONE', #340, #189 ) ;
#224 = DIRECTION ( 'NONE',  ( 1.000000000000000000, 0.0000000000000000000, 0.0000000000000000000 ) ) ;
#225 = DATE_AND_TIME ( #304, #382 ) ;
#226 = EDGE_CURVE ( 'NONE', #284, #180, #363, .T. ) ;
#227 = AXIS2_PLACEMENT_3D ( 'NONE', #176, #111, #89 ) ;
#228 = DIRECTION ( 'NONE',  ( -0.0000000000000000000, -0.0000000000000000000, 1.000000000000000000 ) ) ;
#229 = FACE_OUTER_BOUND ( 'NONE', #322, .T. ) ;
#230 = DIRECTION ( 'NONE',  ( -1.000000000000000000, 1.224646799147353200E-016, 0.0000000000000000000 ) ) ;
#231 = APPROVAL_DATE_TIME ( #313, #344 ) ;
#232 = CARTESIAN_POINT ( 'NONE',  ( 0.0000000000000000000, 0.0000000000000000000, 33.60000000000000100 ) ) ;
#233 = VERTEX_POINT ( 'NONE', #35 ) ;
#234 = DIRECTION ( 'NONE',  ( 0.0000000000000000000, 0.0000000000000000000, -1.000000000000000000 ) ) ;
#235 = EDGE_LOOP ( 'NONE', ( #102, #241 ) ) ;
#236 = ADVANCED_FACE ( 'NONE', ( #1 ), #19, .T. ) ;
#237 = CIRCLE ( 'NONE', #22, 0.3999999999999975800 ) ;
#238 = CONICAL_SURFACE ( 'NONE', #227, 10.26217568973925200, 0.5235987755982940400 ) ;
#239 = PLANE ( 'NONE',  #31 ) ;
#240 = APPROVAL_PERSON_ORGANIZATION ( #324, #344, #129 ) ;
#241 = ORIENTED_EDGE ( 'NONE', *, *, #162, .F. ) ;
#242 = PRODUCT_DEFINITION ( 'UNKNOWN', '', #192, #352 ) ;
#243 = ORIENTED_EDGE ( 'NONE', *, *, #114, .T. ) ;
#244 = ORIENTED_EDGE ( 'NONE', *, *, #17, .F. ) ;
#245 = DIRECTION ( 'NONE',  ( 1.000000000000000000, 0.0000000000000000000, 0.0000000000000000000 ) ) ;
#246 = DIRECTION ( 'NONE',  ( -0.0000000000000000000, -0.0000000000000000000, 1.000000000000000000 ) ) ;
#247 = CARTESIAN_POINT ( 'NONE',  ( 0.0000000000000000000, 0.0000000000000000000, 7.842050807568890400 ) ) ;
#248 = PRODUCT_DEFINITION_SHAPE ( 'NONE', 'NONE',  #242 ) ;
#249 = VERTEX_POINT ( 'NONE', #170 ) ;
#250 = ADVANCED_FACE ( 'NONE', ( #229 ), #238, .T. ) ;
#251 = EDGE_CURVE ( 'NONE', #32, #171, #307, .T. ) ;
#252 = DIRECTION ( 'NONE',  ( -0.0000000000000000000, -0.0000000000000000000, 1.000000000000000000 ) ) ;
#253 = DIRECTION ( 'NONE',  ( 1.000000000000000000, 0.0000000000000000000, 0.0000000000000000000 ) ) ;
#254 = EDGE_LOOP ( 'NONE', ( #148, #63 ) ) ;
#255 = CC_DESIGN_SECURITY_CLASSIFICATION ( #339, ( #192 ) ) ;
#256 = ORIENTED_EDGE ( 'NONE', *, *, #264, .T. ) ;
#257 = AXIS2_PLACEMENT_3D ( 'NONE', #318, #202, #224 ) ;
#258 = ADVANCED_FACE ( 'NONE', ( #315 ), #15, .T. ) ;
#259 = CARTESIAN_POINT ( 'NONE',  ( 0.0000000000000000000, 9.012603057622234500, 34.00000000000000000 ) ) ;
#260 = CARTESIAN_POINT ( 'NONE',  ( 0.0000000000000000000, 0.0000000000000000000, 4.742050807568884500 ) ) ;
#261 = UNCERTAINTY_MEASURE_WITH_UNIT (LENGTH_MEASURE( 1.000000000000000100E-005 ), #351, 'distance_accuracy_value', 'NONE');
#262 = AXIS2_PLACEMENT_3D ( 'NONE', #358, #222, #142 ) ;
#263 = CARTESIAN_POINT ( 'NONE',  ( -9.012603057622234500, 1.127980121063915600E-015, 34.00000000000000000 ) ) ;
#264 = EDGE_CURVE ( 'NONE', #213, #290, #48, .T. ) ;
#265 = EDGE_LOOP ( 'NONE', ( #94, #325, #18, #273 ) ) ;
#266 = AXIS2_PLACEMENT_3D ( 'NONE', #367, #252, #355 ) ;
#267 = DIRECTION ( 'NONE',  ( -0.0000000000000000000, -0.0000000000000000000, 1.000000000000000000 ) ) ;
#268 = DIRECTION ( 'NONE',  ( 0.0000000000000000000, -1.000000000000000000, 0.0000000000000000000 ) ) ;
#269 = CALENDAR_DATE ( 2019, 9, 4 ) ;
#270 = EDGE_LOOP ( 'NONE', ( #168, #104, #288, #314 ) ) ;
#271 = DIRECTION ( 'NONE',  ( 1.000000000000000000, 0.0000000000000000000, 0.0000000000000000000 ) ) ;
#272 = CARTESIAN_POINT ( 'NONE',  ( -10.26217568973925200, 1.256754061072695800E-015, 0.0000000000000000000 ) ) ;
#273 = ORIENTED_EDGE ( 'NONE', *, *, #323, .F. ) ;
#274 = FACE_OUTER_BOUND ( 'NONE', #270, .T. ) ;
#275 = CC_DESIGN_APPROVAL ( #384, ( #339 ) ) ;
#276 = CIRCLE ( 'NONE', #348, 13.03657776635556700 ) ;
#277 = PLANE ( 'NONE',  #166 ) ;
#278 = DIRECTION ( 'NONE',  ( 1.000000000000000000, 0.0000000000000000000, 0.0000000000000000000 ) ) ;
#279 = DATE_AND_TIME ( #353, #50 ) ;
#280 = CARTESIAN_POINT ( 'NONE',  ( 10.26217568973925200, 0.0000000000000000000, 0.0000000000000000000 ) ) ;
#281 = VERTEX_POINT ( 'NONE', #117 ) ;
#282 = AXIS2_PLACEMENT_3D ( 'NONE', #381, #134, #152 ) ;
#283 = CLOSED_SHELL ( 'NONE', ( #258, #370, #184, #250, #29, #183, #357, #174, #145, #236, #199, #327 ) ) ;
#284 = VERTEX_POINT ( 'NONE', #205 ) ;
#285 = APPROVAL_STATUS ( 'not_yet_approved' ) ;
#286 = PERSON_AND_ORGANIZATION ( #163, #93 ) ;
#287 = DIRECTION ( 'NONE',  ( -0.0000000000000000000, -0.0000000000000000000, 1.000000000000000000 ) ) ;
#288 = ORIENTED_EDGE ( 'NONE', *, *, #21, .T. ) ;
#289 = CC_DESIGN_DATE_AND_TIME_ASSIGNMENT ( #279, #34, ( #339 ) ) ;
#290 = VERTEX_POINT ( 'NONE', #263 ) ;
#291 = EDGE_LOOP ( 'NONE', ( #10, #43, #9, #53 ) ) ;
#292 = CIRCLE ( 'NONE', #208, 13.00000000000000000 ) ;
#293 = PLANE ( 'NONE',  #218 ) ;
#294 = AXIS2_PLACEMENT_3D ( 'NONE', #232, #246, #70 ) ;
#295 = DIRECTION ( 'NONE',  ( -0.0000000000000000000, -0.0000000000000000000, 1.000000000000000000 ) ) ;
#296 = DIRECTION ( 'NONE',  ( -1.000000000000000000, 0.0000000000000000000, -0.0000000000000000000 ) ) ;
#297 = LOCAL_TIME ( 15, 9, 5.000000000000000000, #376 ) ;
#298 = EDGE_LOOP ( 'NONE', ( #204, #210 ) ) ;
#299 = CARTESIAN_POINT ( 'NONE',  ( 0.0000000000000000000, 0.0000000000000000000, 33.60000000000000100 ) ) ;
#300 = DIRECTION ( 'NONE',  ( 0.0000000000000000000, 0.0000000000000000000, -1.000000000000000000 ) ) ;
#301 = CARTESIAN_POINT ( 'NONE',  ( 0.0000000000000000000, 0.0000000000000000000, 33.65566924038402900 ) ) ;
#302 =( GEOMETRIC_REPRESENTATION_CONTEXT ( 3 ) GLOBAL_UNCERTAINTY_ASSIGNED_CONTEXT ( ( #261 ) ) GLOBAL_UNIT_ASSIGNED_CONTEXT ( ( #351, #7, #317 ) ) REPRESENTATION_CONTEXT ( 'NONE', 'WORKASPACE' ) );
#303 = DIRECTION ( 'NONE',  ( -0.0000000000000000000, -0.0000000000000000000, 1.000000000000000000 ) ) ;
#304 = CALENDAR_DATE ( 2019, 9, 4 ) ;
#305 = CARTESIAN_POINT ( 'NONE',  ( 0.0000000000000000000, 0.0000000000000000000, 0.0000000000000000000 ) ) ;
#306 = DIRECTION ( 'NONE',  ( 1.000000000000000000, 0.0000000000000000000, 0.0000000000000000000 ) ) ;
#307 = LINE ( 'NONE', #4, #380 ) ;
#308 = AXIS2_PLACEMENT_3D ( 'NONE', #260, #295, #371 ) ;
#309 = CARTESIAN_POINT ( 'NONE',  ( -10.26217568973925200, 1.424397449982127500E-015, 0.0000000000000000000 ) ) ;
#310 = CONICAL_SURFACE ( 'NONE', #282, 10.26217568973925200, 0.5235987755982940400 ) ;
#311 = ORIENTED_EDGE ( 'NONE', *, *, #264, .F. ) ;
#312 = CC_DESIGN_PERSON_AND_ORGANIZATION_ASSIGNMENT ( #368, #81, ( #192 ) ) ;
#313 = DATE_AND_TIME ( #5, #84 ) ;
#314 = ORIENTED_EDGE ( 'NONE', *, *, #201, .F. ) ;
#315 = FACE_OUTER_BOUND ( 'NONE', #57, .T. ) ;
#316 = EDGE_LOOP ( 'NONE', ( #137, #221 ) ) ;
#317 =( NAMED_UNIT ( * ) SI_UNIT ( $, .STERADIAN. ) SOLID_ANGLE_UNIT ( ) );
#318 = CARTESIAN_POINT ( 'NONE',  ( 0.0000000000000000000, 0.0000000000000000000, 0.0000000000000000000 ) ) ;
#319 = APPLICATION_PROTOCOL_DEFINITION ( 'international standard', 'config_control_design', 1994, #217 ) ;
#320 = EDGE_LOOP ( 'NONE', ( #186, #6 ) ) ;
#321 = PRODUCT_RELATED_PRODUCT_CATEGORY ( 'detail', '', ( #14 ) ) ;
#322 = EDGE_LOOP ( 'NONE', ( #108, #378, #95, #133 ) ) ;
#323 = EDGE_CURVE ( 'NONE', #284, #249, #78, .T. ) ;
#324 = PERSON_AND_ORGANIZATION ( #163, #93 ) ;
#325 = ORIENTED_EDGE ( 'NONE', *, *, #17, .T. ) ;
#326 = CC_DESIGN_APPROVAL ( #96, ( #192 ) ) ;
#327 = ADVANCED_FACE ( 'NONE', ( #47 ), #293, .F. ) ;
#328 = CARTESIAN_POINT ( 'NONE',  ( 0.0000000000000000000, 0.0000000000000000000, 7.842050807568876200 ) ) ;
#329 = EDGE_CURVE ( 'NONE', #233, #171, #292, .T. ) ;
#330 = EDGE_CURVE ( 'NONE', #171, #233, #65, .T. ) ;
#331 = EDGE_CURVE ( 'NONE', #213, #85, #372, .T. ) ;
#332 = CIRCLE ( 'NONE', #257, 10.26217568973925200 ) ;
#333 = CIRCLE ( 'NONE', #68, 10.26217568973925200 ) ;
#334 = ORIENTED_EDGE ( 'NONE', *, *, #203, .T. ) ;
#335 = CC_DESIGN_DATE_AND_TIME_ASSIGNMENT ( #225, #160, ( #242 ) ) ;
#336 = AXIS2_PLACEMENT_3D ( 'NONE', #301, #140, #155 ) ;
#337 = VECTOR ( 'NONE', #97, 1000.000000000000000 ) ;
#338 = DIRECTION ( 'NONE',  ( 0.0000000000000000000, -0.0000000000000000000, 1.000000000000000000 ) ) ;
#339 = SECURITY_CLASSIFICATION ( '', '', #187 ) ;
#340 = CARTESIAN_POINT ( 'NONE',  ( -13.03657776635556700, 0.0000000000000000000, 7.842050807568876200 ) ) ;
#341 = DIRECTION ( 'NONE',  ( -1.000000000000000000, 0.0000000000000000000, 0.0000000000000000000 ) ) ;
#342 = CONICAL_SURFACE ( 'NONE', #262, 13.03657776635556700, 0.1396263401595396500 ) ;
#343 = CIRCLE ( 'NONE', #101, 9.012603057622234500 ) ;
#344 = APPROVAL ( #143, 'UNSPECIFIED' ) ;
#345 = LOCAL_TIME ( 15, 9, 5.000000000000000000, #40 ) ;
#346 = FACE_BOUND ( 'NONE', #320, .T. ) ;
#347 = MECHANICAL_CONTEXT ( 'NONE', #217, 'mechanical' ) ;
#348 = AXIS2_PLACEMENT_3D ( 'NONE', #49, #228, #245 ) ;
#349 = EDGE_CURVE ( 'NONE', #249, #281, #216, .T. ) ;
#350 = CYLINDRICAL_SURFACE ( 'NONE', #373, 11.00000000000000000 ) ;
#351 =( LENGTH_UNIT ( ) NAMED_UNIT ( * ) SI_UNIT ( .MILLI., .METRE. ) );
#352 = DESIGN_CONTEXT ( 'detailed design', #211, 'design' ) ;
#353 = CALENDAR_DATE ( 2019, 9, 4 ) ;
#354 = CARTESIAN_POINT ( 'NONE',  ( 0.0000000000000000000, 0.0000000000000000000, 101.8074564848000400 ) ) ;
#355 = DIRECTION ( 'NONE',  ( 1.000000000000000000, 0.0000000000000000000, 0.0000000000000000000 ) ) ;
#356 = EDGE_CURVE ( 'NONE', #122, #290, #54, .T. ) ;
#357 = ADVANCED_FACE ( 'NONE', ( #131, #200 ), #277, .F. ) ;
#358 = CARTESIAN_POINT ( 'NONE',  ( 0.0000000000000000000, 0.0000000000000000000, 7.842050807568876200 ) ) ;
#359 = DIRECTION ( 'NONE',  ( -0.0000000000000000000, -0.0000000000000000000, 1.000000000000000000 ) ) ;
#360 = CARTESIAN_POINT ( 'NONE',  ( 9.012603057622234500, 0.0000000000000000000, 34.00000000000000000 ) ) ;
#361 = DIRECTION ( 'NONE',  ( 1.000000000000000000, 0.0000000000000000000, 0.0000000000000000000 ) ) ;
#362 = VECTOR ( 'NONE', #198, 1000.000000000000200 ) ;
#363 = CIRCLE ( 'NONE', #126, 11.00000000000000000 ) ;
#364 = EDGE_CURVE ( 'NONE', #27, #233, #46, .T. ) ;
#365 = DIRECTION ( 'NONE',  ( 1.000000000000000000, 0.0000000000000000000, 0.0000000000000000000 ) ) ;
#366 = DIRECTION ( 'NONE',  ( -0.0000000000000000000, -0.0000000000000000000, 1.000000000000000000 ) ) ;
#367 = CARTESIAN_POINT ( 'NONE',  ( 0.0000000000000000000, 0.0000000000000000000, 7.842050807568890400 ) ) ;
#368 = PERSON_AND_ORGANIZATION ( #163, #93 ) ;
#369 = CC_DESIGN_PERSON_AND_ORGANIZATION_ASSIGNMENT ( #286, #61, ( #192 ) ) ;
#370 = ADVANCED_FACE ( 'NONE', ( #274 ), #342, .T. ) ;
#371 = DIRECTION ( 'NONE',  ( 1.000000000000000000, 0.0000000000000000000, 0.0000000000000000000 ) ) ;
#372 = CIRCLE ( 'NONE', #220, 9.408710285118862900 ) ;
#373 = AXIS2_PLACEMENT_3D ( 'NONE', #354, #150, #25 ) ;
#374 = CARTESIAN_POINT ( 'NONE',  ( 13.00000000000000000, 0.0000000000000000000, 4.742050807568884500 ) ) ;
#375 = CC_DESIGN_PERSON_AND_ORGANIZATION_ASSIGNMENT ( #209, #52, ( #339 ) ) ;
#376 = COORDINATED_UNIVERSAL_TIME_OFFSET ( 5, 30, .AHEAD. ) ;
#377 = AXIS2_PLACEMENT_3D ( 'NONE', #328, #153, #341 ) ;
#378 = ORIENTED_EDGE ( 'NONE', *, *, #364, .T. ) ;
#379 = CARTESIAN_POINT ( 'NONE',  ( 9.012603057622234500, 0.0000000000000000000, 33.60000000000000100 ) ) ;
#380 = VECTOR ( 'NONE', #173, 1000.000000000000200 ) ;
#381 = CARTESIAN_POINT ( 'NONE',  ( 0.0000000000000000000, 0.0000000000000000000, 0.0000000000000000000 ) ) ;
#382 = LOCAL_TIME ( 15, 9, 5.000000000000000000, #77 ) ;
#383 = DIRECTION ( 'NONE',  ( 1.000000000000000000, 0.0000000000000000000, 0.0000000000000000000 ) ) ;
#384 = APPROVAL ( #181, 'UNSPECIFIED' ) ;
#385 = CARTESIAN_POINT ( 'NONE',  ( 13.03657776635556700, 1.596520323340289600E-015, 7.842050807568876200 ) ) ;
#386 = CIRCLE ( 'NONE', #103, 11.00000000000000000 ) ;
#387 = EDGE_LOOP ( 'NONE', ( #244, #334, #88, #41 ) ) ;
ENDSEC;
END-ISO-10303-21;
