ISO-10303-21;
HEADER;
FILE_DESCRIPTION (( 'STEP AP203' ),
    '1' );
FILE_NAME ('UM ER 20 SLOTTED.STEP',
    '2019-04-22T07:12:52',
    ( '' ),
    ( '' ),
    'SwSTEP 2.0',
    'SolidWorks 2014',
    '' );
FILE_SCHEMA (( 'CONFIG_CONTROL_DESIGN' ));
ENDSEC;

DATA;
#1 = ADVANCED_FACE ( 'NONE', ( #79 ), #234, .T. ) ;
#2 = CARTESIAN_POINT ( 'NONE',  ( -12.50000000000000000, 1.836970198721030000E-015, -9.500000000000008900 ) ) ;
#3 = MANIFOLD_SOLID_BREP ( 'Revolve1', #116 ) ;
#4 = LINE ( 'NONE', #235, #275 ) ;
#5 = CARTESIAN_POINT ( 'NONE',  ( 0.0000000000000000000, 0.0000000000000000000, 43.26054273766887100 ) ) ;
#6 = CALENDAR_DATE ( 2019, 22, 4 ) ;
#7 = DIRECTION ( 'NONE',  ( -1.000000000000000000, 0.0000000000000000000, -0.0000000000000000000 ) ) ;
#8 = CC_DESIGN_DATE_AND_TIME_ASSIGNMENT ( #88, #134, ( #286 ) ) ;
#9 = CYLINDRICAL_SURFACE ( 'NONE', #80, 17.50000000000000000 ) ;
#10 = DIRECTION ( 'NONE',  ( -0.0000000000000000000, -0.0000000000000000000, 1.000000000000000000 ) ) ;
#11 = EDGE_CURVE ( 'NONE', #341, #48, #143, .T. ) ;
#12 = CIRCLE ( 'NONE', #283, 17.50000000000000000 ) ;
#13 = EDGE_CURVE ( 'NONE', #198, #180, #194, .T. ) ;
#14 = VECTOR ( 'NONE', #113, 1000.000000000000000 ) ;
#15 = DIRECTION ( 'NONE',  ( 0.0000000000000000000, -0.0000000000000000000, 1.000000000000000000 ) ) ;
#16 = CARTESIAN_POINT ( 'NONE',  ( 0.0000000000000000000, 0.0000000000000000000, -9.500000000000001800 ) ) ;
#17 = CIRCLE ( 'NONE', #18, 17.50000000000000000 ) ;
#18 = AXIS2_PLACEMENT_3D ( 'NONE', #208, #203, #226 ) ;
#19 = APPROVAL_PERSON_ORGANIZATION ( #122, #303, #93 ) ;
#20 = DIRECTION ( 'NONE',  ( 1.000000000000000000, 0.0000000000000000000, 0.0000000000000000000 ) ) ;
#21 = DIRECTION ( 'NONE',  ( 1.000000000000000000, 0.0000000000000000000, 0.0000000000000000000 ) ) ;
#22 = FACE_OUTER_BOUND ( 'NONE', #119, .T. ) ;
#23 = PRODUCT_DEFINITION_FORMATION_WITH_SPECIFIED_SOURCE ( 'ANY', '', #106, .NOT_KNOWN. ) ;
#24 = LOCAL_TIME ( 12, 42, 52.00000000000000000, #186 ) ;
#25 = CARTESIAN_POINT ( 'NONE',  ( 0.0000000000000000000, 0.0000000000000000000, 9.499999999999994700 ) ) ;
#26 = VECTOR ( 'NONE', #130, 1000.000000000000000 ) ;
#27 = CARTESIAN_POINT ( 'NONE',  ( -17.50000000000000000, 2.143131898507868200E-015, -6.613248654051884200 ) ) ;
#28 = DIRECTION ( 'NONE',  ( 1.000000000000000000, 0.0000000000000000000, 0.0000000000000000000 ) ) ;
#29 = CARTESIAN_POINT ( 'NONE',  ( -7.000000000000000900, 8.572527594031474200E-016, -9.500000000000001800 ) ) ;
#30 = ORIENTED_EDGE ( 'NONE', *, *, #261, .F. ) ;
#31 = PERSON_AND_ORGANIZATION ( #340, #52 ) ;
#32 = AXIS2_PLACEMENT_3D ( 'NONE', #129, #91, #260 ) ;
#33 = CARTESIAN_POINT ( 'NONE',  ( 6.999999999999998200, 0.0000000000000000000, 9.499999999999994700 ) ) ;
#34 = DIRECTION ( 'NONE',  ( -0.0000000000000000000, -0.0000000000000000000, 1.000000000000000000 ) ) ;
#35 = EDGE_LOOP ( 'NONE', ( #107, #167, #284, #62 ) ) ;
#36 = CARTESIAN_POINT ( 'NONE',  ( 7.000000000000000900, 0.0000000000000000000, -9.500000000000001800 ) ) ;
#37 = DATE_AND_TIME ( #266, #221 ) ;
#38 = CARTESIAN_POINT ( 'NONE',  ( 0.0000000000000000000, 0.0000000000000000000, 9.499999999999994700 ) ) ;
#39 = APPROVAL ( #291, 'UNSPECIFIED' ) ;
#40 = CARTESIAN_POINT ( 'NONE',  ( 0.0000000000000000000, 0.0000000000000000000, 43.26054273766887100 ) ) ;
#41 = VERTEX_POINT ( 'NONE', #329 ) ;
#42 = CIRCLE ( 'NONE', #196, 16.50000000000000000 ) ;
#43 = CARTESIAN_POINT ( 'NONE',  ( 0.0000000000000000000, 0.0000000000000000000, -9.500000000000008900 ) ) ;
#44 = DATE_AND_TIME ( #141, #24 ) ;
#45 = ORIENTED_EDGE ( 'NONE', *, *, #344, .T. ) ;
#46 = LINE ( 'NONE', #255, #223 ) ;
#47 = DIRECTION ( 'NONE',  ( -0.0000000000000000000, -0.0000000000000000000, 1.000000000000000000 ) ) ;
#48 = VERTEX_POINT ( 'NONE', #254 ) ;
#49 = MECHANICAL_CONTEXT ( 'NONE', #58, 'mechanical' ) ;
#50 = FACE_OUTER_BOUND ( 'NONE', #101, .T. ) ;
#51 = DIRECTION ( 'NONE',  ( 1.000000000000000000, 0.0000000000000000000, 0.0000000000000000000 ) ) ;
#52 = ORGANIZATION ( 'UNSPECIFIED', 'UNSPECIFIED', '' ) ;
#53 = CARTESIAN_POINT ( 'NONE',  ( 16.50000000000000000, 2.081899558550500300E-015, 9.499999999999994700 ) ) ;
#54 = DIRECTION ( 'NONE',  ( 1.000000000000000000, 0.0000000000000000000, 0.0000000000000000000 ) ) ;
#55 = EDGE_CURVE ( 'NONE', #41, #112, #46, .T. ) ;
#56 = CIRCLE ( 'NONE', #290, 16.50000000000000000 ) ;
#57 = CARTESIAN_POINT ( 'NONE',  ( 0.0000000000000000000, 0.0000000000000000000, -9.500000000000008900 ) ) ;
#58 = APPLICATION_CONTEXT ( 'configuration controlled 3d designs of mechanical parts and assemblies' ) ;
#59 = CC_DESIGN_APPROVAL ( #39, ( #23 ) ) ;
#60 = VECTOR ( 'NONE', #265, 1000.000000000000000 ) ;
#61 = DIRECTION ( 'NONE',  ( -1.000000000000000000, 0.0000000000000000000, 0.0000000000000000000 ) ) ;
#62 = ORIENTED_EDGE ( 'NONE', *, *, #105, .F. ) ;
#63 = PRODUCT_DEFINITION_SHAPE ( 'NONE', 'NONE',  #286 ) ;
#64 = DIRECTION ( 'NONE',  ( -0.8660254037844390400, 1.060575238724907400E-016, 0.4999999999999993300 ) ) ;
#65 = ORIENTED_EDGE ( 'NONE', *, *, #13, .T. ) ;
#66 = FACE_OUTER_BOUND ( 'NONE', #35, .T. ) ;
#67 = EDGE_CURVE ( 'NONE', #161, #269, #189, .T. ) ;
#68 = DIRECTION ( 'NONE',  ( 1.000000000000000000, 0.0000000000000000000, 0.0000000000000000000 ) ) ;
#69 = ORIENTED_EDGE ( 'NONE', *, *, #231, .T. ) ;
#70 = ORIENTED_EDGE ( 'NONE', *, *, #11, .T. ) ;
#71 = ORIENTED_EDGE ( 'NONE', *, *, #138, .F. ) ;
#72 = SHAPE_DEFINITION_REPRESENTATION ( #63, #295 ) ;
#73 = CONICAL_SURFACE ( 'NONE', #32, 12.50000000000000000, 1.047197551196598500 ) ;
#74 = CARTESIAN_POINT ( 'NONE',  ( -16.50000000000000000, 0.0000000000000000000, 9.499999999999994700 ) ) ;
#75 = CONICAL_SURFACE ( 'NONE', #153, 12.50000000000000000, 1.047197551196598500 ) ;
#76 = CC_DESIGN_PERSON_AND_ORGANIZATION_ASSIGNMENT ( #339, #312, ( #23 ) ) ;
#77 = CARTESIAN_POINT ( 'NONE',  ( 12.50000000000000000, 0.0000000000000000000, -9.500000000000008900 ) ) ;
#78 = DIRECTION ( 'NONE',  ( -0.0000000000000000000, -0.0000000000000000000, 1.000000000000000000 ) ) ;
#79 = FACE_OUTER_BOUND ( 'NONE', #172, .T. ) ;
#80 = AXIS2_PLACEMENT_3D ( 'NONE', #40, #154, #21 ) ;
#81 = FACE_OUTER_BOUND ( 'NONE', #133, .T. ) ;
#82 = EDGE_CURVE ( 'NONE', #198, #161, #207, .T. ) ;
#83 = CARTESIAN_POINT ( 'NONE',  ( 0.0000000000000000000, 0.0000000000000000000, 9.499999999999994700 ) ) ;
#84 = ADVANCED_FACE ( 'NONE', ( #152, #117 ), #222, .F. ) ;
#85 = DIRECTION ( 'NONE',  ( 1.000000000000000000, 0.0000000000000000000, 0.0000000000000000000 ) ) ;
#86 = ORIENTED_EDGE ( 'NONE', *, *, #218, .F. ) ;
#87 = CARTESIAN_POINT ( 'NONE',  ( 17.50000000000000000, 2.143131898507868200E-015, 8.500000000000000000 ) ) ;
#88 = DATE_AND_TIME ( #6, #100 ) ;
#89 = DIRECTION ( 'NONE',  ( 0.0000000000000000000, 0.0000000000000000000, -1.000000000000000000 ) ) ;
#90 = AXIS2_PLACEMENT_3D ( 'NONE', #296, #144, #108 ) ;
#91 = DIRECTION ( 'NONE',  ( -0.0000000000000000000, -0.0000000000000000000, 1.000000000000000000 ) ) ;
#92 = EDGE_CURVE ( 'NONE', #41, #150, #12, .T. ) ;
#93 = APPROVAL_ROLE ( '' ) ;
#94 = ORIENTED_EDGE ( 'NONE', *, *, #13, .F. ) ;
#95 = CARTESIAN_POINT ( 'NONE',  ( 0.0000000000000000000, 0.0000000000000000000, 8.500000000000000000 ) ) ;
#96 = CC_DESIGN_PERSON_AND_ORGANIZATION_ASSIGNMENT ( #31, #163, ( #23 ) ) ;
#97 = AXIS2_PLACEMENT_3D ( 'NONE', #99, #229, #28 ) ;
#98 = ORIENTED_EDGE ( 'NONE', *, *, #55, .T. ) ;
#99 = CARTESIAN_POINT ( 'NONE',  ( 0.0000000000000000000, 0.0000000000000000000, -6.613248654051884200 ) ) ;
#100 = LOCAL_TIME ( 12, 42, 52.00000000000000000, #300 ) ;
#101 = EDGE_LOOP ( 'NONE', ( #139, #151, #65, #137 ) ) ;
#102 = AXIS2_PLACEMENT_3D ( 'NONE', #83, #200, #209 ) ;
#103 = FACE_BOUND ( 'NONE', #262, .T. ) ;
#104 = CARTESIAN_POINT ( 'NONE',  ( 0.0000000000000000000, 0.0000000000000000000, 8.500000000000000000 ) ) ;
#105 = EDGE_CURVE ( 'NONE', #150, #41, #328, .T. ) ;
#106 = PRODUCT ( 'UM ER 20 SLOTTED', 'UM ER 20 SLOTTED', '', ( #49 ) ) ;
#107 = ORIENTED_EDGE ( 'NONE', *, *, #244, .F. ) ;
#108 = DIRECTION ( 'NONE',  ( 1.000000000000000000, 0.0000000000000000000, 0.0000000000000000000 ) ) ;
#109 = PERSON_AND_ORGANIZATION ( #340, #52 ) ;
#110 = AXIS2_PLACEMENT_3D ( 'NONE', #258, #15, #302 ) ;
#111 = DIRECTION ( 'NONE',  ( -0.0000000000000000000, -0.0000000000000000000, 1.000000000000000000 ) ) ;
#112 = VERTEX_POINT ( 'NONE', #87 ) ;
#113 = DIRECTION ( 'NONE',  ( 0.7071067811865500200, 8.659560562354963700E-017, -0.7071067811865450200 ) ) ;
#114 = DIRECTION ( 'NONE',  ( -0.0000000000000000000, -0.0000000000000000000, 1.000000000000000000 ) ) ;
#115 = SECURITY_CLASSIFICATION ( '', '', #205 ) ;
#116 = CLOSED_SHELL ( 'NONE', ( #278, #233, #1, #320, #322, #84, #348, #210, #325, #215 ) ) ;
#117 = FACE_OUTER_BOUND ( 'NONE', #337, .T. ) ;
#118 = AXIS2_PLACEMENT_3D ( 'NONE', #192, #293, #147 ) ;
#119 = EDGE_LOOP ( 'NONE', ( #280, #162, #282, #94 ) ) ;
#120 = ORIENTED_EDGE ( 'NONE', *, *, #92, .T. ) ;
#121 = FACE_OUTER_BOUND ( 'NONE', #316, .T. ) ;
#122 = PERSON_AND_ORGANIZATION ( #340, #52 ) ;
#123 = APPROVAL_PERSON_ORGANIZATION ( #109, #166, #124 ) ;
#124 = APPROVAL_ROLE ( '' ) ;
#125 = EDGE_CURVE ( 'NONE', #309, #112, #177, .T. ) ;
#126 = CIRCLE ( 'NONE', #276, 6.999999999999998200 ) ;
#127 = UNCERTAINTY_MEASURE_WITH_UNIT (LENGTH_MEASURE( 1.000000000000000100E-005 ), #279, 'distance_accuracy_value', 'NONE');
#128 = APPROVAL_DATE_TIME ( #44, #303 ) ;
#129 = CARTESIAN_POINT ( 'NONE',  ( 0.0000000000000000000, 0.0000000000000000000, -9.500000000000008900 ) ) ;
#130 = DIRECTION ( 'NONE',  ( 0.8660254037844390400, 0.0000000000000000000, 0.4999999999999993300 ) ) ;
#131 = AXIS2_PLACEMENT_3D ( 'NONE', #104, #213, #68 ) ;
#132 = APPLICATION_CONTEXT ( 'configuration controlled 3d designs of mechanical parts and assemblies' ) ;
#133 = EDGE_LOOP ( 'NONE', ( #71, #287, #98, #164 ) ) ;
#134 = DATE_TIME_ROLE ( 'creation_date' ) ;
#135 = PERSON_AND_ORGANIZATION ( #340, #52 ) ;
#136 = CC_DESIGN_PERSON_AND_ORGANIZATION_ASSIGNMENT ( #195, #171, ( #115 ) ) ;
#137 = ORIENTED_EDGE ( 'NONE', *, *, #204, .T. ) ;
#138 = EDGE_CURVE ( 'NONE', #150, #48, #342, .T. ) ;
#139 = ORIENTED_EDGE ( 'NONE', *, *, #67, .F. ) ;
#140 = CIRCLE ( 'NONE', #157, 12.50000000000000000 ) ;
#141 = CALENDAR_DATE ( 2019, 22, 4 ) ;
#142 = ORIENTED_EDGE ( 'NONE', *, *, #231, .F. ) ;
#143 = LINE ( 'NONE', #149, #347 ) ;
#144 = DIRECTION ( 'NONE',  ( -0.0000000000000000000, -0.0000000000000000000, 1.000000000000000000 ) ) ;
#145 = PERSON_AND_ORGANIZATION ( #340, #52 ) ;
#146 = DIRECTION ( 'NONE',  ( -0.0000000000000000000, -0.0000000000000000000, 1.000000000000000000 ) ) ;
#147 = DIRECTION ( 'NONE',  ( 1.000000000000000000, 0.0000000000000000000, 0.0000000000000000000 ) ) ;
#148 = DATE_AND_TIME ( #259, #202 ) ;
#149 = CARTESIAN_POINT ( 'NONE',  ( -17.50000000000000000, 0.0000000000000000000, 8.500000000000000000 ) ) ;
#150 = VERTEX_POINT ( 'NONE', #27 ) ;
#151 = ORIENTED_EDGE ( 'NONE', *, *, #82, .F. ) ;
#152 = FACE_BOUND ( 'NONE', #321, .T. ) ;
#153 = AXIS2_PLACEMENT_3D ( 'NONE', #57, #78, #310 ) ;
#154 = DIRECTION ( 'NONE',  ( -0.0000000000000000000, -0.0000000000000000000, 1.000000000000000000 ) ) ;
#155 = DIRECTION ( 'NONE',  ( -0.0000000000000000000, -0.0000000000000000000, 1.000000000000000000 ) ) ;
#156 = CC_DESIGN_DATE_AND_TIME_ASSIGNMENT ( #148, #175, ( #115 ) ) ;
#157 = AXIS2_PLACEMENT_3D ( 'NONE', #43, #155, #174 ) ;
#158 = ORIENTED_EDGE ( 'NONE', *, *, #125, .T. ) ;
#159 = ORIENTED_EDGE ( 'NONE', *, *, #82, .T. ) ;
#160 = AXIS2_PLACEMENT_3D ( 'NONE', #95, #89, #61 ) ;
#161 = VERTEX_POINT ( 'NONE', #29 ) ;
#162 = ORIENTED_EDGE ( 'NONE', *, *, #67, .T. ) ;
#163 = PERSON_AND_ORGANIZATION_ROLE ( 'design_supplier' ) ;
#164 = ORIENTED_EDGE ( 'NONE', *, *, #308, .F. ) ;
#165 = FACE_OUTER_BOUND ( 'NONE', #307, .T. ) ;
#166 = APPROVAL ( #183, 'UNSPECIFIED' ) ;
#167 = ORIENTED_EDGE ( 'NONE', *, *, #261, .T. ) ;
#168 = ORIENTED_EDGE ( 'NONE', *, *, #241, .F. ) ;
#169 = AXIS2_PLACEMENT_3D ( 'NONE', #190, #111, #54 ) ;
#170 = LOCAL_TIME ( 12, 42, 52.00000000000000000, #238 ) ;
#171 = PERSON_AND_ORGANIZATION_ROLE ( 'classification_officer' ) ;
#172 = EDGE_LOOP ( 'NONE', ( #86, #158, #45, #256 ) ) ;
#173 =( GEOMETRIC_REPRESENTATION_CONTEXT ( 3 ) GLOBAL_UNCERTAINTY_ASSIGNED_CONTEXT ( ( #127 ) ) GLOBAL_UNIT_ASSIGNED_CONTEXT ( ( #279, #245, #324 ) ) REPRESENTATION_CONTEXT ( 'NONE', 'WORKASPACE' ) );
#174 = DIRECTION ( 'NONE',  ( 1.000000000000000000, 0.0000000000000000000, 0.0000000000000000000 ) ) ;
#175 = DATE_TIME_ROLE ( 'classification_date' ) ;
#176 = ORIENTED_EDGE ( 'NONE', *, *, #218, .T. ) ;
#177 = LINE ( 'NONE', #237, #14 ) ;
#178 = DIRECTION ( 'NONE',  ( 1.000000000000000000, 0.0000000000000000000, 0.0000000000000000000 ) ) ;
#179 = CC_DESIGN_APPROVAL ( #166, ( #115 ) ) ;
#180 = VERTEX_POINT ( 'NONE', #33 ) ;
#181 = VECTOR ( 'NONE', #47, 1000.000000000000000 ) ;
#182 = AXIS2_PLACEMENT_3D ( 'NONE', #188, #273, #7 ) ;
#183 = APPROVAL_STATUS ( 'not_yet_approved' ) ;
#184 = ORIENTED_EDGE ( 'NONE', *, *, #138, .T. ) ;
#185 = EDGE_LOOP ( 'NONE', ( #142, #30 ) ) ;
#186 = COORDINATED_UNIVERSAL_TIME_OFFSET ( 5, 30, .AHEAD. ) ;
#187 = CALENDAR_DATE ( 2019, 22, 4 ) ;
#188 = CARTESIAN_POINT ( 'NONE',  ( 0.0000000000000000000, 6.999999999999998200, 9.499999999999994700 ) ) ;
#189 = LINE ( 'NONE', #228, #220 ) ;
#190 = CARTESIAN_POINT ( 'NONE',  ( 0.0000000000000000000, 0.0000000000000000000, 43.26054273766887100 ) ) ;
#191 = CARTESIAN_POINT ( 'NONE',  ( -17.50000000000000000, 2.143131898507868200E-015, 43.26054273766887100 ) ) ;
#192 = CARTESIAN_POINT ( 'NONE',  ( 0.0000000000000000000, 0.0000000000000000000, -9.500000000000001800 ) ) ;
#193 = EDGE_CURVE ( 'NONE', #341, #309, #42, .T. ) ;
#194 = LINE ( 'NONE', #331, #60 ) ;
#195 = PERSON_AND_ORGANIZATION ( #340, #52 ) ;
#196 = AXIS2_PLACEMENT_3D ( 'NONE', #25, #230, #178 ) ;
#197 = DESIGN_CONTEXT ( 'detailed design', #132, 'design' ) ;
#198 = VERTEX_POINT ( 'NONE', #36 ) ;
#199 = FACE_OUTER_BOUND ( 'NONE', #240, .T. ) ;
#200 = DIRECTION ( 'NONE',  ( -0.0000000000000000000, -0.0000000000000000000, 1.000000000000000000 ) ) ;
#201 = CC_DESIGN_SECURITY_CLASSIFICATION ( #115, ( #23 ) ) ;
#202 = LOCAL_TIME ( 12, 42, 52.00000000000000000, #216 ) ;
#203 = DIRECTION ( 'NONE',  ( -0.0000000000000000000, -0.0000000000000000000, 1.000000000000000000 ) ) ;
#204 = EDGE_CURVE ( 'NONE', #180, #269, #126, .T. ) ;
#205 = SECURITY_CLASSIFICATION_LEVEL ( 'unclassified' ) ;
#206 = ORIENTED_EDGE ( 'NONE', *, *, #299, .F. ) ;
#207 = CIRCLE ( 'NONE', #225, 7.000000000000000900 ) ;
#208 = CARTESIAN_POINT ( 'NONE',  ( 0.0000000000000000000, 0.0000000000000000000, 8.500000000000000000 ) ) ;
#209 = DIRECTION ( 'NONE',  ( 1.000000000000000000, 0.0000000000000000000, 0.0000000000000000000 ) ) ;
#210 = ADVANCED_FACE ( 'NONE', ( #81 ), #246, .T. ) ;
#211 = DIRECTION ( 'NONE',  ( 1.000000000000000000, 0.0000000000000000000, 0.0000000000000000000 ) ) ;
#212 = APPROVAL_DATE_TIME ( #314, #166 ) ;
#213 = DIRECTION ( 'NONE',  ( -0.0000000000000000000, -0.0000000000000000000, 1.000000000000000000 ) ) ;
#214 = ORIENTED_EDGE ( 'NONE', *, *, #338, .T. ) ;
#215 = ADVANCED_FACE ( 'NONE', ( #333, #103 ), #224, .F. ) ;
#216 = COORDINATED_UNIVERSAL_TIME_OFFSET ( 5, 30, .AHEAD. ) ;
#217 = PRODUCT_RELATED_PRODUCT_CATEGORY ( 'detail', '', ( #106 ) ) ;
#218 = EDGE_CURVE ( 'NONE', #309, #341, #56, .T. ) ;
#219 = ORIENTED_EDGE ( 'NONE', *, *, #92, .F. ) ;
#220 = VECTOR ( 'NONE', #146, 1000.000000000000000 ) ;
#221 = LOCAL_TIME ( 12, 42, 52.00000000000000000, #343 ) ;
#222 = PLANE ( 'NONE',  #182 ) ;
#223 = VECTOR ( 'NONE', #236, 1000.000000000000000 ) ;
#224 = PLANE ( 'NONE',  #110 ) ;
#225 = AXIS2_PLACEMENT_3D ( 'NONE', #16, #10, #294 ) ;
#226 = DIRECTION ( 'NONE',  ( 1.000000000000000000, 0.0000000000000000000, 0.0000000000000000000 ) ) ;
#227 = ORIENTED_EDGE ( 'NONE', *, *, #308, .T. ) ;
#228 = CARTESIAN_POINT ( 'NONE',  ( -6.999999999999999100, 8.572527594031472200E-016, 43.26054273766887100 ) ) ;
#229 = DIRECTION ( 'NONE',  ( -0.0000000000000000000, -0.0000000000000000000, 1.000000000000000000 ) ) ;
#230 = DIRECTION ( 'NONE',  ( -0.0000000000000000000, -0.0000000000000000000, 1.000000000000000000 ) ) ;
#231 = EDGE_CURVE ( 'NONE', #257, #281, #288, .T. ) ;
#232 = DIRECTION ( 'NONE',  ( -0.0000000000000000000, -0.0000000000000000000, 1.000000000000000000 ) ) ;
#233 = ADVANCED_FACE ( 'NONE', ( #121 ), #9, .T. ) ;
#234 = CONICAL_SURFACE ( 'NONE', #305, 17.50000000000000000, 0.7853981633974518300 ) ;
#235 = CARTESIAN_POINT ( 'NONE',  ( -12.50000000000000000, 1.530808498934191500E-015, -9.500000000000008900 ) ) ;
#236 = DIRECTION ( 'NONE',  ( -0.0000000000000000000, -0.0000000000000000000, 1.000000000000000000 ) ) ;
#237 = CARTESIAN_POINT ( 'NONE',  ( 17.50000000000000000, 2.143131898507868200E-015, 8.500000000000000000 ) ) ;
#238 = COORDINATED_UNIVERSAL_TIME_OFFSET ( 5, 30, .AHEAD. ) ;
#239 = CARTESIAN_POINT ( 'NONE',  ( 0.0000000000000000000, 0.0000000000000000000, -6.613248654051884200 ) ) ;
#240 = EDGE_LOOP ( 'NONE', ( #317, #271, #70, #227 ) ) ;
#241 = EDGE_CURVE ( 'NONE', #257, #41, #251, .T. ) ;
#242 = DIRECTION ( 'NONE',  ( 1.000000000000000000, 0.0000000000000000000, 0.0000000000000000000 ) ) ;
#243 = DIRECTION ( 'NONE',  ( -1.000000000000000000, 0.0000000000000000000, 0.0000000000000000000 ) ) ;
#244 = EDGE_CURVE ( 'NONE', #281, #150, #4, .T. ) ;
#245 =( NAMED_UNIT ( * ) PLANE_ANGLE_UNIT ( ) SI_UNIT ( $, .RADIAN. ) );
#246 = CYLINDRICAL_SURFACE ( 'NONE', #267, 17.50000000000000000 ) ;
#247 = APPROVAL_DATE_TIME ( #37, #39 ) ;
#248 = AXIS2_PLACEMENT_3D ( 'NONE', #306, #297, #51 ) ;
#249 = PERSON_AND_ORGANIZATION_ROLE ( 'creator' ) ;
#250 = ORIENTED_EDGE ( 'NONE', *, *, #344, .F. ) ;
#251 = LINE ( 'NONE', #326, #26 ) ;
#252 = CARTESIAN_POINT ( 'NONE',  ( 0.0000000000000000000, 0.0000000000000000000, 8.500000000000000000 ) ) ;
#253 = PERSON_AND_ORGANIZATION ( #340, #52 ) ;
#254 = CARTESIAN_POINT ( 'NONE',  ( -17.50000000000000000, 0.0000000000000000000, 8.500000000000000000 ) ) ;
#255 = CARTESIAN_POINT ( 'NONE',  ( 17.50000000000000000, 0.0000000000000000000, 43.26054273766887100 ) ) ;
#256 = ORIENTED_EDGE ( 'NONE', *, *, #11, .F. ) ;
#257 = VERTEX_POINT ( 'NONE', #77 ) ;
#258 = CARTESIAN_POINT ( 'NONE',  ( 0.0000000000000000000, 12.50000000000000000, -9.500000000000005300 ) ) ;
#259 = CALENDAR_DATE ( 2019, 22, 4 ) ;
#260 = DIRECTION ( 'NONE',  ( 1.000000000000000000, 0.0000000000000000000, 0.0000000000000000000 ) ) ;
#261 = EDGE_CURVE ( 'NONE', #281, #257, #140, .T. ) ;
#262 = EDGE_LOOP ( 'NONE', ( #159, #214 ) ) ;
#263 = CIRCLE ( 'NONE', #102, 6.999999999999998200 ) ;
#264 = ORIENTED_EDGE ( 'NONE', *, *, #55, .F. ) ;
#265 = DIRECTION ( 'NONE',  ( -0.0000000000000000000, -0.0000000000000000000, 1.000000000000000000 ) ) ;
#266 = CALENDAR_DATE ( 2019, 22, 4 ) ;
#267 = AXIS2_PLACEMENT_3D ( 'NONE', #336, #34, #20 ) ;
#268 = APPROVAL_STATUS ( 'not_yet_approved' ) ;
#269 = VERTEX_POINT ( 'NONE', #289 ) ;
#270 = CC_DESIGN_PERSON_AND_ORGANIZATION_ASSIGNMENT ( #145, #323, ( #106 ) ) ;
#271 = ORIENTED_EDGE ( 'NONE', *, *, #193, .F. ) ;
#272 = CIRCLE ( 'NONE', #131, 17.50000000000000000 ) ;
#273 = DIRECTION ( 'NONE',  ( 0.0000000000000000000, 0.0000000000000000000, -1.000000000000000000 ) ) ;
#274 = ORIENTED_EDGE ( 'NONE', *, *, #193, .T. ) ;
#275 = VECTOR ( 'NONE', #64, 1000.000000000000000 ) ;
#276 = AXIS2_PLACEMENT_3D ( 'NONE', #327, #319, #315 ) ;
#277 = DIRECTION ( 'NONE',  ( -0.7071067811865500200, 0.0000000000000000000, -0.7071067811865450200 ) ) ;
#278 = ADVANCED_FACE ( 'NONE', ( #165 ), #75, .T. ) ;
#279 =( LENGTH_UNIT ( ) NAMED_UNIT ( * ) SI_UNIT ( .MILLI., .METRE. ) );
#280 = ORIENTED_EDGE ( 'NONE', *, *, #338, .F. ) ;
#281 = VERTEX_POINT ( 'NONE', #2 ) ;
#282 = ORIENTED_EDGE ( 'NONE', *, *, #299, .T. ) ;
#283 = AXIS2_PLACEMENT_3D ( 'NONE', #239, #232, #242 ) ;
#284 = ORIENTED_EDGE ( 'NONE', *, *, #241, .T. ) ;
#285 = CONICAL_SURFACE ( 'NONE', #160, 17.50000000000000000, 0.7853981633974518300 ) ;
#286 = PRODUCT_DEFINITION ( 'UNKNOWN', '', #23, #197 ) ;
#287 = ORIENTED_EDGE ( 'NONE', *, *, #105, .T. ) ;
#288 = CIRCLE ( 'NONE', #90, 12.50000000000000000 ) ;
#289 = CARTESIAN_POINT ( 'NONE',  ( -6.999999999999998200, 8.572527594031471200E-016, 9.499999999999994700 ) ) ;
#290 = AXIS2_PLACEMENT_3D ( 'NONE', #38, #114, #211 ) ;
#291 = APPROVAL_STATUS ( 'not_yet_approved' ) ;
#292 = CYLINDRICAL_SURFACE ( 'NONE', #332, 6.999999999999999100 ) ;
#293 = DIRECTION ( 'NONE',  ( -0.0000000000000000000, -0.0000000000000000000, 1.000000000000000000 ) ) ;
#294 = DIRECTION ( 'NONE',  ( 1.000000000000000000, 0.0000000000000000000, 0.0000000000000000000 ) ) ;
#295 = ADVANCED_BREP_SHAPE_REPRESENTATION ( 'UM ER 20 SLOTTED', ( #3, #248 ), #173 ) ;
#296 = CARTESIAN_POINT ( 'NONE',  ( 0.0000000000000000000, 0.0000000000000000000, -9.500000000000008900 ) ) ;
#297 = DIRECTION ( 'NONE',  ( 0.0000000000000000000, 0.0000000000000000000, 1.000000000000000000 ) ) ;
#298 = ORIENTED_EDGE ( 'NONE', *, *, #244, .T. ) ;
#299 = EDGE_CURVE ( 'NONE', #269, #180, #263, .T. ) ;
#300 = COORDINATED_UNIVERSAL_TIME_OFFSET ( 5, 30, .AHEAD. ) ;
#301 = CIRCLE ( 'NONE', #118, 7.000000000000000900 ) ;
#302 = DIRECTION ( 'NONE',  ( 1.000000000000000000, 0.0000000000000000000, 0.0000000000000000000 ) ) ;
#303 = APPROVAL ( #268, 'UNSPECIFIED' ) ;
#304 = APPLICATION_PROTOCOL_DEFINITION ( 'international standard', 'config_control_design', 1994, #132 ) ;
#305 = AXIS2_PLACEMENT_3D ( 'NONE', #252, #318, #243 ) ;
#306 = CARTESIAN_POINT ( 'NONE',  ( 0.0000000000000000000, 0.0000000000000000000, 0.0000000000000000000 ) ) ;
#307 = EDGE_LOOP ( 'NONE', ( #69, #298, #219, #168 ) ) ;
#308 = EDGE_CURVE ( 'NONE', #48, #112, #17, .T. ) ;
#309 = VERTEX_POINT ( 'NONE', #53 ) ;
#310 = DIRECTION ( 'NONE',  ( 1.000000000000000000, 0.0000000000000000000, 0.0000000000000000000 ) ) ;
#311 = CYLINDRICAL_SURFACE ( 'NONE', #169, 6.999999999999999100 ) ;
#312 = PERSON_AND_ORGANIZATION_ROLE ( 'creator' ) ;
#313 = CC_DESIGN_APPROVAL ( #303, ( #286 ) ) ;
#314 = DATE_AND_TIME ( #187, #170 ) ;
#315 = DIRECTION ( 'NONE',  ( 1.000000000000000000, 0.0000000000000000000, 0.0000000000000000000 ) ) ;
#316 = EDGE_LOOP ( 'NONE', ( #120, #184, #250, #264 ) ) ;
#317 = ORIENTED_EDGE ( 'NONE', *, *, #125, .F. ) ;
#318 = DIRECTION ( 'NONE',  ( 0.0000000000000000000, 0.0000000000000000000, -1.000000000000000000 ) ) ;
#319 = DIRECTION ( 'NONE',  ( -0.0000000000000000000, -0.0000000000000000000, 1.000000000000000000 ) ) ;
#320 = ADVANCED_FACE ( 'NONE', ( #22 ), #292, .F. ) ;
#321 = EDGE_LOOP ( 'NONE', ( #346, #206 ) ) ;
#322 = ADVANCED_FACE ( 'NONE', ( #50 ), #311, .F. ) ;
#323 = PERSON_AND_ORGANIZATION_ROLE ( 'design_owner' ) ;
#324 =( NAMED_UNIT ( * ) SI_UNIT ( $, .STERADIAN. ) SOLID_ANGLE_UNIT ( ) );
#325 = ADVANCED_FACE ( 'NONE', ( #66 ), #73, .T. ) ;
#326 = CARTESIAN_POINT ( 'NONE',  ( 12.50000000000000000, 0.0000000000000000000, -9.500000000000008900 ) ) ;
#327 = CARTESIAN_POINT ( 'NONE',  ( 0.0000000000000000000, 0.0000000000000000000, 9.499999999999994700 ) ) ;
#328 = CIRCLE ( 'NONE', #97, 17.50000000000000000 ) ;
#329 = CARTESIAN_POINT ( 'NONE',  ( 17.50000000000000000, 0.0000000000000000000, -6.613248654051884200 ) ) ;
#330 = APPROVAL_PERSON_ORGANIZATION ( #253, #39, #349 ) ;
#331 = CARTESIAN_POINT ( 'NONE',  ( 6.999999999999999100, 0.0000000000000000000, 43.26054273766887100 ) ) ;
#332 = AXIS2_PLACEMENT_3D ( 'NONE', #5, #345, #85 ) ;
#333 = FACE_OUTER_BOUND ( 'NONE', #185, .T. ) ;
#334 = APPLICATION_PROTOCOL_DEFINITION ( 'international standard', 'config_control_design', 1994, #58 ) ;
#335 = CC_DESIGN_PERSON_AND_ORGANIZATION_ASSIGNMENT ( #135, #249, ( #286 ) ) ;
#336 = CARTESIAN_POINT ( 'NONE',  ( 0.0000000000000000000, 0.0000000000000000000, 43.26054273766887100 ) ) ;
#337 = EDGE_LOOP ( 'NONE', ( #274, #176 ) ) ;
#338 = EDGE_CURVE ( 'NONE', #161, #198, #301, .T. ) ;
#339 = PERSON_AND_ORGANIZATION ( #340, #52 ) ;
#340 = PERSON ( 'UNSPECIFIED', 'UNSPECIFIED', 'UNSPECIFIED', ('UNSPECIFIED'), ('UNSPECIFIED'), ('UNSPECIFIED') ) ;
#341 = VERTEX_POINT ( 'NONE', #74 ) ;
#342 = LINE ( 'NONE', #191, #181 ) ;
#343 = COORDINATED_UNIVERSAL_TIME_OFFSET ( 5, 30, .AHEAD. ) ;
#344 = EDGE_CURVE ( 'NONE', #112, #48, #272, .T. ) ;
#345 = DIRECTION ( 'NONE',  ( -0.0000000000000000000, -0.0000000000000000000, 1.000000000000000000 ) ) ;
#346 = ORIENTED_EDGE ( 'NONE', *, *, #204, .F. ) ;
#347 = VECTOR ( 'NONE', #277, 1000.000000000000000 ) ;
#348 = ADVANCED_FACE ( 'NONE', ( #199 ), #285, .T. ) ;
#349 = APPROVAL_ROLE ( '' ) ;
ENDSEC;
END-ISO-10303-21;
