ISO-10303-21;
HEADER;
FILE_DESCRIPTION (( 'STEP AP203' ),
    '1' );
FILE_NAME ('UM ER 16 SLOTTED.STEP',
    '2019-04-22T07:09:23',
    ( '' ),
    ( '' ),
    'SwSTEP 2.0',
    'SolidWorks 2014',
    '' );
FILE_SCHEMA (( 'CONFIG_CONTROL_DESIGN' ));
ENDSEC;

DATA;
#1 = EDGE_CURVE ( 'NONE', #250, #197, #270, .T. ) ;
#2 = DIRECTION ( 'NONE',  ( 1.000000000000000000, 0.0000000000000000000, 0.0000000000000000000 ) ) ;
#3 = DIRECTION ( 'NONE',  ( 1.000000000000000000, 0.0000000000000000000, 0.0000000000000000000 ) ) ;
#4 = ORIENTED_EDGE ( 'NONE', *, *, #162, .T. ) ;
#5 = APPROVAL_STATUS ( 'not_yet_approved' ) ;
#6 = ORIENTED_EDGE ( 'NONE', *, *, #343, .T. ) ;
#7 = CIRCLE ( 'NONE', #127, 10.50000000000000000 ) ;
#8 = ADVANCED_FACE ( 'NONE', ( #342 ), #80, .T. ) ;
#9 = PRODUCT_DEFINITION_SHAPE ( 'NONE', 'NONE',  #221 ) ;
#10 = EDGE_CURVE ( 'NONE', #250, #346, #7, .T. ) ;
#11 =( NAMED_UNIT ( * ) SI_UNIT ( $, .STERADIAN. ) SOLID_ANGLE_UNIT ( ) );
#12 = ORIENTED_EDGE ( 'NONE', *, *, #210, .T. ) ;
#13 = EDGE_LOOP ( 'NONE', ( #131, #202, #76, #300 ) ) ;
#14 = CARTESIAN_POINT ( 'NONE',  ( -4.999999999999998200, 6.123233995736764300E-016, 43.26054273766887100 ) ) ;
#15 = PERSON_AND_ORGANIZATION_ROLE ( 'classification_officer' ) ;
#16 = DIRECTION ( 'NONE',  ( 1.000000000000000000, 0.0000000000000000000, 0.0000000000000000000 ) ) ;
#17 = VECTOR ( 'NONE', #268, 1000.000000000000000 ) ;
#18 = EDGE_CURVE ( 'NONE', #346, #250, #311, .T. ) ;
#19 = APPROVAL_DATE_TIME ( #84, #225 ) ;
#20 = FACE_OUTER_BOUND ( 'NONE', #287, .T. ) ;
#21 = CONICAL_SURFACE ( 'NONE', #217, 16.00000000000000000, 0.7853981633974518300 ) ;
#22 = DIRECTION ( 'NONE',  ( -1.000000000000000000, 0.0000000000000000000, 0.0000000000000000000 ) ) ;
#23 = VERTEX_POINT ( 'NONE', #101 ) ;
#24 = EDGE_CURVE ( 'NONE', #23, #197, #216, .T. ) ;
#25 = APPROVAL_ROLE ( '' ) ;
#26 = EDGE_LOOP ( 'NONE', ( #92, #246 ) ) ;
#27 = VECTOR ( 'NONE', #165, 1000.000000000000000 ) ;
#28 = APPROVAL_PERSON_ORGANIZATION ( #93, #225, #89 ) ;
#29 = SECURITY_CLASSIFICATION ( '', '', #62 ) ;
#30 = EDGE_CURVE ( 'NONE', #320, #255, #284, .T. ) ;
#31 = FACE_OUTER_BOUND ( 'NONE', #67, .T. ) ;
#32 = EDGE_CURVE ( 'NONE', #320, #49, #70, .T. ) ;
#33 = ORIENTED_EDGE ( 'NONE', *, *, #196, .T. ) ;
#34 = PERSON_AND_ORGANIZATION_ROLE ( 'creator' ) ;
#35 = ADVANCED_FACE ( 'NONE', ( #37 ), #58, .T. ) ;
#36 = COORDINATED_UNIVERSAL_TIME_OFFSET ( 5, 30, .AHEAD. ) ;
#37 = FACE_OUTER_BOUND ( 'NONE', #208, .T. ) ;
#38 = CIRCLE ( 'NONE', #142, 4.999999999999999100 ) ;
#39 = CARTESIAN_POINT ( 'NONE',  ( -15.00000000000000000, 0.0000000000000000000, 8.750000000000000000 ) ) ;
#40 = ORIENTED_EDGE ( 'NONE', *, *, #218, .F. ) ;
#41 = APPROVAL_STATUS ( 'not_yet_approved' ) ;
#42 = DIRECTION ( 'NONE',  ( 1.000000000000000000, 0.0000000000000000000, 0.0000000000000000000 ) ) ;
#43 = EDGE_CURVE ( 'NONE', #255, #64, #192, .T. ) ;
#44 = AXIS2_PLACEMENT_3D ( 'NONE', #178, #181, #158 ) ;
#45 = DATE_AND_TIME ( #106, #171 ) ;
#46 = APPLICATION_CONTEXT ( 'configuration controlled 3d designs of mechanical parts and assemblies' ) ;
#47 = AXIS2_PLACEMENT_3D ( 'NONE', #292, #119, #229 ) ;
#48 = PERSON_AND_ORGANIZATION_ROLE ( 'design_owner' ) ;
#49 = VERTEX_POINT ( 'NONE', #105 ) ;
#50 = VERTEX_POINT ( 'NONE', #244 ) ;
#51 = CYLINDRICAL_SURFACE ( 'NONE', #206, 16.00000000000000000 ) ;
#52 = CARTESIAN_POINT ( 'NONE',  ( 0.0000000000000000000, 0.0000000000000000000, -5.574573519457073800 ) ) ;
#53 = CYLINDRICAL_SURFACE ( 'NONE', #82, 4.999999999999998200 ) ;
#54 = PLANE ( 'NONE',  #94 ) ;
#55 = CARTESIAN_POINT ( 'NONE',  ( 0.0000000000000000000, 0.0000000000000000000, 43.26054273766887100 ) ) ;
#56 = ORIENTED_EDGE ( 'NONE', *, *, #24, .F. ) ;
#57 = PERSON_AND_ORGANIZATION ( #310, #349 ) ;
#58 = CONICAL_SURFACE ( 'NONE', #191, 10.50000000000000000, 1.047197551196599600 ) ;
#59 = VECTOR ( 'NONE', #348, 1000.000000000000000 ) ;
#60 = CARTESIAN_POINT ( 'NONE',  ( 0.0000000000000000000, 0.0000000000000000000, 8.750000000000000000 ) ) ;
#61 = AXIS2_PLACEMENT_3D ( 'NONE', #77, #223, #22 ) ;
#62 = SECURITY_CLASSIFICATION_LEVEL ( 'unclassified' ) ;
#63 = ADVANCED_FACE ( 'NONE', ( #146 ), #51, .T. ) ;
#64 = VERTEX_POINT ( 'NONE', #228 ) ;
#65 = APPLICATION_PROTOCOL_DEFINITION ( 'international standard', 'config_control_design', 1994, #46 ) ;
#66 = PERSON_AND_ORGANIZATION ( #310, #349 ) ;
#67 = EDGE_LOOP ( 'NONE', ( #204, #139 ) ) ;
#68 = DIRECTION ( 'NONE',  ( 1.000000000000000000, 0.0000000000000000000, 0.0000000000000000000 ) ) ;
#69 = DIRECTION ( 'NONE',  ( -0.0000000000000000000, -0.0000000000000000000, 1.000000000000000000 ) ) ;
#70 = LINE ( 'NONE', #14, #136 ) ;
#71 = DIRECTION ( 'NONE',  ( -0.0000000000000000000, -0.0000000000000000000, 1.000000000000000000 ) ) ;
#72 =( GEOMETRIC_REPRESENTATION_CONTEXT ( 3 ) GLOBAL_UNCERTAINTY_ASSIGNED_CONTEXT ( ( #299 ) ) GLOBAL_UNIT_ASSIGNED_CONTEXT ( ( #149, #232, #11 ) ) REPRESENTATION_CONTEXT ( 'NONE', 'WORKASPACE' ) );
#73 = CC_DESIGN_PERSON_AND_ORGANIZATION_ASSIGNMENT ( #249, #143, ( #261 ) ) ;
#74 = COORDINATED_UNIVERSAL_TIME_OFFSET ( 5, 30, .AHEAD. ) ;
#75 = EDGE_CURVE ( 'NONE', #255, #320, #38, .T. ) ;
#76 = ORIENTED_EDGE ( 'NONE', *, *, #43, .T. ) ;
#77 = CARTESIAN_POINT ( 'NONE',  ( 0.0000000000000000000, 0.0000000000000000000, 7.750000000000007100 ) ) ;
#78 = APPROVAL_STATUS ( 'not_yet_approved' ) ;
#79 = PLANE ( 'NONE',  #280 ) ;
#80 = CONICAL_SURFACE ( 'NONE', #109, 10.50000000000000000, 1.047197551196599600 ) ;
#81 = LINE ( 'NONE', #129, #234 ) ;
#82 = AXIS2_PLACEMENT_3D ( 'NONE', #132, #339, #126 ) ;
#83 = DIRECTION ( 'NONE',  ( 1.000000000000000000, 0.0000000000000000000, 0.0000000000000000000 ) ) ;
#84 = DATE_AND_TIME ( #145, #227 ) ;
#85 = CARTESIAN_POINT ( 'NONE',  ( 0.0000000000000000000, 0.0000000000000000000, 7.750000000000007100 ) ) ;
#86 = APPROVAL_ROLE ( '' ) ;
#87 = AXIS2_PLACEMENT_3D ( 'NONE', #319, #305, #256 ) ;
#88 = ORIENTED_EDGE ( 'NONE', *, *, #10, .T. ) ;
#89 = APPROVAL_ROLE ( '' ) ;
#90 = ORIENTED_EDGE ( 'NONE', *, *, #162, .F. ) ;
#91 = DIRECTION ( 'NONE',  ( -0.0000000000000000000, -0.0000000000000000000, 1.000000000000000000 ) ) ;
#92 = ORIENTED_EDGE ( 'NONE', *, *, #75, .T. ) ;
#93 = PERSON_AND_ORGANIZATION ( #310, #349 ) ;
#94 = AXIS2_PLACEMENT_3D ( 'NONE', #333, #314, #254 ) ;
#95 = ADVANCED_FACE ( 'NONE', ( #267 ), #169, .T. ) ;
#96 = FACE_OUTER_BOUND ( 'NONE', #184, .T. ) ;
#97 = ORIENTED_EDGE ( 'NONE', *, *, #147, .T. ) ;
#98 = PERSON_AND_ORGANIZATION ( #310, #349 ) ;
#99 = EDGE_CURVE ( 'NONE', #197, #23, #198, .T. ) ;
#100 = CIRCLE ( 'NONE', #44, 4.999999999999997300 ) ;
#101 = CARTESIAN_POINT ( 'NONE',  ( 16.00000000000000000, 0.0000000000000000000, -5.574573519457073800 ) ) ;
#102 = DIRECTION ( 'NONE',  ( 0.0000000000000000000, 0.0000000000000000000, 1.000000000000000000 ) ) ;
#103 = PRODUCT_RELATED_PRODUCT_CATEGORY ( 'detail', '', ( #175 ) ) ;
#104 = EDGE_CURVE ( 'NONE', #308, #50, #144, .T. ) ;
#105 = CARTESIAN_POINT ( 'NONE',  ( -4.999999999999997300, 6.123233995736764300E-016, 8.750000000000000000 ) ) ;
#106 = CALENDAR_DATE ( 2019, 22, 4 ) ;
#107 = VECTOR ( 'NONE', #188, 1000.000000000000000 ) ;
#108 = AXIS2_PLACEMENT_3D ( 'NONE', #85, #195, #265 ) ;
#109 = AXIS2_PLACEMENT_3D ( 'NONE', #242, #344, #2 ) ;
#110 = ADVANCED_FACE ( 'NONE', ( #231, #317 ), #54, .F. ) ;
#111 = ADVANCED_BREP_SHAPE_REPRESENTATION ( 'UM ER 16 SLOTTED', ( #338, #156 ), #72 ) ;
#112 = LINE ( 'NONE', #236, #239 ) ;
#113 = AXIS2_PLACEMENT_3D ( 'NONE', #60, #275, #187 ) ;
#114 = DIRECTION ( 'NONE',  ( -0.0000000000000000000, -0.0000000000000000000, 1.000000000000000000 ) ) ;
#115 = DATE_AND_TIME ( #182, #264 ) ;
#116 = CYLINDRICAL_SURFACE ( 'NONE', #47, 4.999999999999998200 ) ;
#117 = ADVANCED_FACE ( 'NONE', ( #96 ), #21, .T. ) ;
#118 = VERTEX_POINT ( 'NONE', #276 ) ;
#119 = DIRECTION ( 'NONE',  ( -0.0000000000000000000, -0.0000000000000000000, 1.000000000000000000 ) ) ;
#120 = DIRECTION ( 'NONE',  ( -0.0000000000000000000, -0.0000000000000000000, 1.000000000000000000 ) ) ;
#121 = ORIENTED_EDGE ( 'NONE', *, *, #24, .T. ) ;
#122 = APPROVAL_DATE_TIME ( #189, #306 ) ;
#123 = ORIENTED_EDGE ( 'NONE', *, *, #43, .F. ) ;
#124 = CARTESIAN_POINT ( 'NONE',  ( 16.00000000000000000, 0.0000000000000000000, 43.26054273766887100 ) ) ;
#125 = CARTESIAN_POINT ( 'NONE',  ( 4.999999999999998200, 0.0000000000000000000, 43.26054273766887100 ) ) ;
#126 = DIRECTION ( 'NONE',  ( 1.000000000000000000, 0.0000000000000000000, 0.0000000000000000000 ) ) ;
#127 = AXIS2_PLACEMENT_3D ( 'NONE', #203, #120, #214 ) ;
#128 = ORIENTED_EDGE ( 'NONE', *, *, #343, .F. ) ;
#129 = CARTESIAN_POINT ( 'NONE',  ( 16.00000000000000000, 1.959434878635765100E-015, 7.750000000000007100 ) ) ;
#130 = APPROVAL_PERSON_ORGANIZATION ( #200, #306, #86 ) ;
#131 = ORIENTED_EDGE ( 'NONE', *, *, #32, .F. ) ;
#132 = CARTESIAN_POINT ( 'NONE',  ( 0.0000000000000000000, 0.0000000000000000000, 43.26054273766887100 ) ) ;
#133 = ORIENTED_EDGE ( 'NONE', *, *, #99, .F. ) ;
#134 = ORIENTED_EDGE ( 'NONE', *, *, #147, .F. ) ;
#135 = CIRCLE ( 'NONE', #113, 15.00000000000000000 ) ;
#136 = VECTOR ( 'NONE', #71, 1000.000000000000000 ) ;
#137 = ORIENTED_EDGE ( 'NONE', *, *, #104, .F. ) ;
#138 = CARTESIAN_POINT ( 'NONE',  ( -16.00000000000000000, 0.0000000000000000000, 7.750000000000007100 ) ) ;
#139 = ORIENTED_EDGE ( 'NONE', *, *, #168, .T. ) ;
#140 = PERSON_AND_ORGANIZATION_ROLE ( 'design_supplier' ) ;
#141 = AXIS2_PLACEMENT_3D ( 'NONE', #155, #262, #238 ) ;
#142 = AXIS2_PLACEMENT_3D ( 'NONE', #272, #194, #173 ) ;
#143 = PERSON_AND_ORGANIZATION_ROLE ( 'creator' ) ;
#144 = LINE ( 'NONE', #138, #27 ) ;
#145 = CALENDAR_DATE ( 2019, 22, 4 ) ;
#146 = FACE_OUTER_BOUND ( 'NONE', #224, .T. ) ;
#147 = EDGE_CURVE ( 'NONE', #346, #23, #112, .T. ) ;
#148 = CONICAL_SURFACE ( 'NONE', #61, 16.00000000000000000, 0.7853981633974518300 ) ;
#149 =( LENGTH_UNIT ( ) NAMED_UNIT ( * ) SI_UNIT ( .MILLI., .METRE. ) );
#150 = ORIENTED_EDGE ( 'NONE', *, *, #1, .T. ) ;
#151 = DESIGN_CONTEXT ( 'detailed design', #46, 'design' ) ;
#152 = AXIS2_PLACEMENT_3D ( 'NONE', #52, #114, #159 ) ;
#153 = EDGE_LOOP ( 'NONE', ( #263, #220 ) ) ;
#154 = APPLICATION_PROTOCOL_DEFINITION ( 'international standard', 'config_control_design', 1994, #347 ) ;
#155 = CARTESIAN_POINT ( 'NONE',  ( 0.0000000000000000000, 0.0000000000000000000, -8.750000000000000000 ) ) ;
#156 = AXIS2_PLACEMENT_3D ( 'NONE', #315, #102, #233 ) ;
#157 = DATE_AND_TIME ( #237, #304 ) ;
#158 = DIRECTION ( 'NONE',  ( 1.000000000000000000, 0.0000000000000000000, 0.0000000000000000000 ) ) ;
#159 = DIRECTION ( 'NONE',  ( 1.000000000000000000, 0.0000000000000000000, 0.0000000000000000000 ) ) ;
#160 = FACE_OUTER_BOUND ( 'NONE', #313, .T. ) ;
#161 = AXIS2_PLACEMENT_3D ( 'NONE', #241, #226, #3 ) ;
#162 = EDGE_CURVE ( 'NONE', #49, #64, #100, .T. ) ;
#163 = PERSON_AND_ORGANIZATION ( #310, #349 ) ;
#164 = CARTESIAN_POINT ( 'NONE',  ( -4.999999999999999100, 6.123233995736765300E-016, -8.750000000000000000 ) ) ;
#165 = DIRECTION ( 'NONE',  ( -0.7071067811865500200, 0.0000000000000000000, -0.7071067811865450200 ) ) ;
#166 = CARTESIAN_POINT ( 'NONE',  ( 0.0000000000000000000, 0.0000000000000000000, 7.750000000000007100 ) ) ;
#167 = APPROVAL ( #78, 'UNSPECIFIED' ) ;
#168 = EDGE_CURVE ( 'NONE', #260, #308, #135, .T. ) ;
#169 = CYLINDRICAL_SURFACE ( 'NONE', #212, 16.00000000000000000 ) ;
#170 = EDGE_CURVE ( 'NONE', #64, #49, #185, .T. ) ;
#171 = LOCAL_TIME ( 12, 39, 23.00000000000000000, #257 ) ;
#172 = ORIENTED_EDGE ( 'NONE', *, *, #168, .F. ) ;
#173 = DIRECTION ( 'NONE',  ( 1.000000000000000000, 0.0000000000000000000, 0.0000000000000000000 ) ) ;
#174 = EDGE_CURVE ( 'NONE', #197, #50, #269, .T. ) ;
#175 = PRODUCT ( 'UM ER 16 SLOTTED', 'UM ER 16 SLOTTED', '', ( #340 ) ) ;
#176 = CARTESIAN_POINT ( 'NONE',  ( 15.00000000000000000, 1.898202538678397200E-015, 8.750000000000000000 ) ) ;
#177 = CARTESIAN_POINT ( 'NONE',  ( 4.999999999999999100, 0.0000000000000000000, -8.750000000000000000 ) ) ;
#178 = CARTESIAN_POINT ( 'NONE',  ( 0.0000000000000000000, 0.0000000000000000000, 8.750000000000000000 ) ) ;
#179 = ORIENTED_EDGE ( 'NONE', *, *, #18, .T. ) ;
#180 = LINE ( 'NONE', #124, #17 ) ;
#181 = DIRECTION ( 'NONE',  ( -0.0000000000000000000, -0.0000000000000000000, 1.000000000000000000 ) ) ;
#182 = CALENDAR_DATE ( 2019, 22, 4 ) ;
#183 = ORIENTED_EDGE ( 'NONE', *, *, #174, .T. ) ;
#184 = EDGE_LOOP ( 'NONE', ( #128, #336, #230, #12 ) ) ;
#185 = CIRCLE ( 'NONE', #193, 4.999999999999997300 ) ;
#186 = DIRECTION ( 'NONE',  ( -0.0000000000000000000, -0.0000000000000000000, 1.000000000000000000 ) ) ;
#187 = DIRECTION ( 'NONE',  ( 1.000000000000000000, 0.0000000000000000000, 0.0000000000000000000 ) ) ;
#188 = DIRECTION ( 'NONE',  ( -0.8660254037844396000, 1.060575238724908000E-016, 0.4999999999999983900 ) ) ;
#189 = DATE_AND_TIME ( #271, #334 ) ;
#190 = ORIENTED_EDGE ( 'NONE', *, *, #30, .F. ) ;
#191 = AXIS2_PLACEMENT_3D ( 'NONE', #337, #91, #323 ) ;
#192 = LINE ( 'NONE', #125, #297 ) ;
#193 = AXIS2_PLACEMENT_3D ( 'NONE', #235, #186, #83 ) ;
#194 = DIRECTION ( 'NONE',  ( -0.0000000000000000000, -0.0000000000000000000, 1.000000000000000000 ) ) ;
#195 = DIRECTION ( 'NONE',  ( -0.0000000000000000000, -0.0000000000000000000, 1.000000000000000000 ) ) ;
#196 = EDGE_CURVE ( 'NONE', #23, #118, #180, .T. ) ;
#197 = VERTEX_POINT ( 'NONE', #331 ) ;
#198 = CIRCLE ( 'NONE', #152, 16.00000000000000000 ) ;
#199 = CC_DESIGN_PERSON_AND_ORGANIZATION_ASSIGNMENT ( #163, #140, ( #261 ) ) ;
#200 = PERSON_AND_ORGANIZATION ( #310, #349 ) ;
#201 = ADVANCED_FACE ( 'NONE', ( #160 ), #148, .T. ) ;
#202 = ORIENTED_EDGE ( 'NONE', *, *, #75, .F. ) ;
#203 = CARTESIAN_POINT ( 'NONE',  ( 0.0000000000000000000, 0.0000000000000000000, -8.750000000000000000 ) ) ;
#204 = ORIENTED_EDGE ( 'NONE', *, *, #321, .T. ) ;
#205 = ADVANCED_FACE ( 'NONE', ( #20 ), #53, .F. ) ;
#206 = AXIS2_PLACEMENT_3D ( 'NONE', #332, #69, #42 ) ;
#207 = CARTESIAN_POINT ( 'NONE',  ( 0.0000000000000000000, 4.999999999999997300, 8.750000000000000000 ) ) ;
#208 = EDGE_LOOP ( 'NONE', ( #179, #150, #56, #134 ) ) ;
#209 = DATE_TIME_ROLE ( 'creation_date' ) ;
#210 = EDGE_CURVE ( 'NONE', #50, #118, #324, .T. ) ;
#211 = FACE_BOUND ( 'NONE', #290, .T. ) ;
#212 = AXIS2_PLACEMENT_3D ( 'NONE', #55, #258, #68 ) ;
#213 = DIRECTION ( 'NONE',  ( 0.0000000000000000000, 0.0000000000000000000, -1.000000000000000000 ) ) ;
#214 = DIRECTION ( 'NONE',  ( 1.000000000000000000, 0.0000000000000000000, 0.0000000000000000000 ) ) ;
#215 = CARTESIAN_POINT ( 'NONE',  ( 0.0000000000000000000, 0.0000000000000000000, -5.574573519457073800 ) ) ;
#216 = CIRCLE ( 'NONE', #295, 16.00000000000000000 ) ;
#217 = AXIS2_PLACEMENT_3D ( 'NONE', #266, #286, #247 ) ;
#218 = EDGE_CURVE ( 'NONE', #118, #50, #283, .T. ) ;
#219 = DIRECTION ( 'NONE',  ( 0.7071067811865500200, 8.659560562354963700E-017, -0.7071067811865450200 ) ) ;
#220 = ORIENTED_EDGE ( 'NONE', *, *, #10, .F. ) ;
#221 = PRODUCT_DEFINITION ( 'UNKNOWN', '', #261, #151 ) ;
#222 = ADVANCED_FACE ( 'NONE', ( #282 ), #116, .F. ) ;
#223 = DIRECTION ( 'NONE',  ( 0.0000000000000000000, 0.0000000000000000000, -1.000000000000000000 ) ) ;
#224 = EDGE_LOOP ( 'NONE', ( #121, #183, #40, #298 ) ) ;
#225 = APPROVAL ( #5, 'UNSPECIFIED' ) ;
#226 = DIRECTION ( 'NONE',  ( -0.0000000000000000000, -0.0000000000000000000, 1.000000000000000000 ) ) ;
#227 = LOCAL_TIME ( 12, 39, 23.00000000000000000, #296 ) ;
#228 = CARTESIAN_POINT ( 'NONE',  ( 4.999999999999997300, 0.0000000000000000000, 8.750000000000000000 ) ) ;
#229 = DIRECTION ( 'NONE',  ( 1.000000000000000000, 0.0000000000000000000, 0.0000000000000000000 ) ) ;
#230 = ORIENTED_EDGE ( 'NONE', *, *, #104, .T. ) ;
#231 = FACE_OUTER_BOUND ( 'NONE', #153, .T. ) ;
#232 =( NAMED_UNIT ( * ) PLANE_ANGLE_UNIT ( ) SI_UNIT ( $, .RADIAN. ) );
#233 = DIRECTION ( 'NONE',  ( 1.000000000000000000, 0.0000000000000000000, 0.0000000000000000000 ) ) ;
#234 = VECTOR ( 'NONE', #219, 1000.000000000000000 ) ;
#235 = CARTESIAN_POINT ( 'NONE',  ( 0.0000000000000000000, 0.0000000000000000000, 8.750000000000000000 ) ) ;
#236 = CARTESIAN_POINT ( 'NONE',  ( 10.50000000000000000, 0.0000000000000000000, -8.750000000000000000 ) ) ;
#237 = CALENDAR_DATE ( 2019, 22, 4 ) ;
#238 = DIRECTION ( 'NONE',  ( 1.000000000000000000, 0.0000000000000000000, 0.0000000000000000000 ) ) ;
#239 = VECTOR ( 'NONE', #326, 1000.000000000000000 ) ;
#240 = CARTESIAN_POINT ( 'NONE',  ( -16.00000000000000000, 1.959434878635765100E-015, 43.26054273766887100 ) ) ;
#241 = CARTESIAN_POINT ( 'NONE',  ( 0.0000000000000000000, 0.0000000000000000000, 8.750000000000000000 ) ) ;
#242 = CARTESIAN_POINT ( 'NONE',  ( 0.0000000000000000000, 0.0000000000000000000, -8.750000000000000000 ) ) ;
#243 = SHAPE_DEFINITION_REPRESENTATION ( #9, #111 ) ;
#244 = CARTESIAN_POINT ( 'NONE',  ( -16.00000000000000000, 0.0000000000000000000, 7.750000000000007100 ) ) ;
#245 = CC_DESIGN_PERSON_AND_ORGANIZATION_ASSIGNMENT ( #66, #34, ( #221 ) ) ;
#246 = ORIENTED_EDGE ( 'NONE', *, *, #30, .T. ) ;
#247 = DIRECTION ( 'NONE',  ( -1.000000000000000000, 0.0000000000000000000, 0.0000000000000000000 ) ) ;
#248 = DIRECTION ( 'NONE',  ( -0.0000000000000000000, -0.0000000000000000000, 1.000000000000000000 ) ) ;
#249 = PERSON_AND_ORGANIZATION ( #310, #349 ) ;
#250 = VERTEX_POINT ( 'NONE', #289 ) ;
#251 = CIRCLE ( 'NONE', #161, 15.00000000000000000 ) ;
#252 = ORIENTED_EDGE ( 'NONE', *, *, #170, .F. ) ;
#253 = CC_DESIGN_APPROVAL ( #225, ( #29 ) ) ;
#254 = DIRECTION ( 'NONE',  ( 1.000000000000000000, 0.0000000000000000000, 0.0000000000000000000 ) ) ;
#255 = VERTEX_POINT ( 'NONE', #177 ) ;
#256 = DIRECTION ( 'NONE',  ( 1.000000000000000000, 0.0000000000000000000, 0.0000000000000000000 ) ) ;
#257 = COORDINATED_UNIVERSAL_TIME_OFFSET ( 5, 30, .AHEAD. ) ;
#258 = DIRECTION ( 'NONE',  ( -0.0000000000000000000, -0.0000000000000000000, 1.000000000000000000 ) ) ;
#259 = DIRECTION ( 'NONE',  ( -1.000000000000000000, 0.0000000000000000000, -0.0000000000000000000 ) ) ;
#260 = VERTEX_POINT ( 'NONE', #176 ) ;
#261 = PRODUCT_DEFINITION_FORMATION_WITH_SPECIFIED_SOURCE ( 'ANY', '', #175, .NOT_KNOWN. ) ;
#262 = DIRECTION ( 'NONE',  ( -0.0000000000000000000, -0.0000000000000000000, 1.000000000000000000 ) ) ;
#263 = ORIENTED_EDGE ( 'NONE', *, *, #18, .F. ) ;
#264 = LOCAL_TIME ( 12, 39, 23.00000000000000000, #327 ) ;
#265 = DIRECTION ( 'NONE',  ( 1.000000000000000000, 0.0000000000000000000, 0.0000000000000000000 ) ) ;
#266 = CARTESIAN_POINT ( 'NONE',  ( 0.0000000000000000000, 0.0000000000000000000, 7.750000000000007100 ) ) ;
#267 = FACE_OUTER_BOUND ( 'NONE', #291, .T. ) ;
#268 = DIRECTION ( 'NONE',  ( -0.0000000000000000000, -0.0000000000000000000, 1.000000000000000000 ) ) ;
#269 = LINE ( 'NONE', #240, #59 ) ;
#270 = LINE ( 'NONE', #274, #107 ) ;
#271 = CALENDAR_DATE ( 2019, 22, 4 ) ;
#272 = CARTESIAN_POINT ( 'NONE',  ( 0.0000000000000000000, 0.0000000000000000000, -8.750000000000000000 ) ) ;
#273 = CLOSED_SHELL ( 'NONE', ( #35, #63, #201, #205, #222, #312, #117, #95, #8, #110 ) ) ;
#274 = CARTESIAN_POINT ( 'NONE',  ( -10.50000000000000000, 1.285879139104720800E-015, -8.750000000000000000 ) ) ;
#275 = DIRECTION ( 'NONE',  ( -0.0000000000000000000, -0.0000000000000000000, 1.000000000000000000 ) ) ;
#276 = CARTESIAN_POINT ( 'NONE',  ( 16.00000000000000000, 1.959434878635765100E-015, 7.750000000000007100 ) ) ;
#277 = PERSON_AND_ORGANIZATION ( #310, #349 ) ;
#278 = CC_DESIGN_PERSON_AND_ORGANIZATION_ASSIGNMENT ( #277, #48, ( #175 ) ) ;
#279 = ORIENTED_EDGE ( 'NONE', *, *, #174, .F. ) ;
#280 = AXIS2_PLACEMENT_3D ( 'NONE', #207, #213, #259 ) ;
#281 = CC_DESIGN_APPROVAL ( #167, ( #261 ) ) ;
#282 = FACE_OUTER_BOUND ( 'NONE', #13, .T. ) ;
#283 = CIRCLE ( 'NONE', #301, 16.00000000000000000 ) ;
#284 = CIRCLE ( 'NONE', #141, 4.999999999999999100 ) ;
#285 = CC_DESIGN_SECURITY_CLASSIFICATION ( #29, ( #261 ) ) ;
#286 = DIRECTION ( 'NONE',  ( 0.0000000000000000000, 0.0000000000000000000, -1.000000000000000000 ) ) ;
#287 = EDGE_LOOP ( 'NONE', ( #190, #302, #4, #123 ) ) ;
#288 = CC_DESIGN_PERSON_AND_ORGANIZATION_ASSIGNMENT ( #98, #15, ( #29 ) ) ;
#289 = CARTESIAN_POINT ( 'NONE',  ( -10.50000000000000000, 1.622657008870242900E-015, -8.750000000000000000 ) ) ;
#290 = EDGE_LOOP ( 'NONE', ( #252, #90 ) ) ;
#291 = EDGE_LOOP ( 'NONE', ( #279, #322, #33, #293 ) ) ;
#292 = CARTESIAN_POINT ( 'NONE',  ( 0.0000000000000000000, 0.0000000000000000000, 43.26054273766887100 ) ) ;
#293 = ORIENTED_EDGE ( 'NONE', *, *, #210, .F. ) ;
#294 = DIRECTION ( 'NONE',  ( -0.0000000000000000000, -0.0000000000000000000, 1.000000000000000000 ) ) ;
#295 = AXIS2_PLACEMENT_3D ( 'NONE', #215, #294, #330 ) ;
#296 = COORDINATED_UNIVERSAL_TIME_OFFSET ( 5, 30, .AHEAD. ) ;
#297 = VECTOR ( 'NONE', #303, 1000.000000000000000 ) ;
#298 = ORIENTED_EDGE ( 'NONE', *, *, #196, .F. ) ;
#299 = UNCERTAINTY_MEASURE_WITH_UNIT (LENGTH_MEASURE( 1.000000000000000100E-005 ), #149, 'distance_accuracy_value', 'NONE');
#300 = ORIENTED_EDGE ( 'NONE', *, *, #170, .T. ) ;
#301 = AXIS2_PLACEMENT_3D ( 'NONE', #166, #248, #16 ) ;
#302 = ORIENTED_EDGE ( 'NONE', *, *, #32, .T. ) ;
#303 = DIRECTION ( 'NONE',  ( -0.0000000000000000000, -0.0000000000000000000, 1.000000000000000000 ) ) ;
#304 = LOCAL_TIME ( 12, 39, 23.00000000000000000, #36 ) ;
#305 = DIRECTION ( 'NONE',  ( -0.0000000000000000000, -0.0000000000000000000, 1.000000000000000000 ) ) ;
#306 = APPROVAL ( #41, 'UNSPECIFIED' ) ;
#307 = DATE_TIME_ROLE ( 'classification_date' ) ;
#308 = VERTEX_POINT ( 'NONE', #39 ) ;
#309 = APPROVAL_DATE_TIME ( #45, #167 ) ;
#310 = PERSON ( 'UNSPECIFIED', 'UNSPECIFIED', 'UNSPECIFIED', ('UNSPECIFIED'), ('UNSPECIFIED'), ('UNSPECIFIED') ) ;
#311 = CIRCLE ( 'NONE', #87, 10.50000000000000000 ) ;
#312 = ADVANCED_FACE ( 'NONE', ( #211, #31 ), #79, .F. ) ;
#313 = EDGE_LOOP ( 'NONE', ( #172, #6, #335, #137 ) ) ;
#314 = DIRECTION ( 'NONE',  ( 0.0000000000000000000, -0.0000000000000000000, 1.000000000000000000 ) ) ;
#315 = CARTESIAN_POINT ( 'NONE',  ( 0.0000000000000000000, 0.0000000000000000000, 0.0000000000000000000 ) ) ;
#316 = CC_DESIGN_DATE_AND_TIME_ASSIGNMENT ( #115, #209, ( #221 ) ) ;
#317 = FACE_BOUND ( 'NONE', #26, .T. ) ;
#318 = APPROVAL_PERSON_ORGANIZATION ( #57, #167, #25 ) ;
#319 = CARTESIAN_POINT ( 'NONE',  ( 0.0000000000000000000, 0.0000000000000000000, -8.750000000000000000 ) ) ;
#320 = VERTEX_POINT ( 'NONE', #164 ) ;
#321 = EDGE_CURVE ( 'NONE', #308, #260, #251, .T. ) ;
#322 = ORIENTED_EDGE ( 'NONE', *, *, #99, .T. ) ;
#323 = DIRECTION ( 'NONE',  ( 1.000000000000000000, 0.0000000000000000000, 0.0000000000000000000 ) ) ;
#324 = CIRCLE ( 'NONE', #108, 16.00000000000000000 ) ;
#325 = CC_DESIGN_DATE_AND_TIME_ASSIGNMENT ( #157, #307, ( #29 ) ) ;
#326 = DIRECTION ( 'NONE',  ( 0.8660254037844396000, 0.0000000000000000000, 0.4999999999999983900 ) ) ;
#327 = COORDINATED_UNIVERSAL_TIME_OFFSET ( 5, 30, .AHEAD. ) ;
#328 = ORIENTED_EDGE ( 'NONE', *, *, #1, .F. ) ;
#329 = CARTESIAN_POINT ( 'NONE',  ( 10.50000000000000000, 0.0000000000000000000, -8.750000000000000000 ) ) ;
#330 = DIRECTION ( 'NONE',  ( 1.000000000000000000, 0.0000000000000000000, 0.0000000000000000000 ) ) ;
#331 = CARTESIAN_POINT ( 'NONE',  ( -16.00000000000000000, 1.959434878635765100E-015, -5.574573519457073800 ) ) ;
#332 = CARTESIAN_POINT ( 'NONE',  ( 0.0000000000000000000, 0.0000000000000000000, 43.26054273766887100 ) ) ;
#333 = CARTESIAN_POINT ( 'NONE',  ( 0.0000000000000000000, 10.50000000000000000, -8.750000000000000000 ) ) ;
#334 = LOCAL_TIME ( 12, 39, 23.00000000000000000, #74 ) ;
#335 = ORIENTED_EDGE ( 'NONE', *, *, #218, .T. ) ;
#336 = ORIENTED_EDGE ( 'NONE', *, *, #321, .F. ) ;
#337 = CARTESIAN_POINT ( 'NONE',  ( 0.0000000000000000000, 0.0000000000000000000, -8.750000000000000000 ) ) ;
#338 = MANIFOLD_SOLID_BREP ( 'Revolve1', #273 ) ;
#339 = DIRECTION ( 'NONE',  ( -0.0000000000000000000, -0.0000000000000000000, 1.000000000000000000 ) ) ;
#340 = MECHANICAL_CONTEXT ( 'NONE', #347, 'mechanical' ) ;
#341 = EDGE_LOOP ( 'NONE', ( #328, #88, #97, #133 ) ) ;
#342 = FACE_OUTER_BOUND ( 'NONE', #341, .T. ) ;
#343 = EDGE_CURVE ( 'NONE', #260, #118, #81, .T. ) ;
#344 = DIRECTION ( 'NONE',  ( -0.0000000000000000000, -0.0000000000000000000, 1.000000000000000000 ) ) ;
#345 = CC_DESIGN_APPROVAL ( #306, ( #221 ) ) ;
#346 = VERTEX_POINT ( 'NONE', #329 ) ;
#347 = APPLICATION_CONTEXT ( 'configuration controlled 3d designs of mechanical parts and assemblies' ) ;
#348 = DIRECTION ( 'NONE',  ( -0.0000000000000000000, -0.0000000000000000000, 1.000000000000000000 ) ) ;
#349 = ORGANIZATION ( 'UNSPECIFIED', 'UNSPECIFIED', '' ) ;
ENDSEC;
END-ISO-10303-21;
